tablaturas, partituras y acordes para guitarra
Busca por banda/artista:
 
y/o título de la canción:
A B C D E F G H I J K L M N O P Q R S T U V W X Y Z 0 1 2 3 4 5 6 7 8 9 / Top 100 tabs
Categorías
Usuarios
usuario:
Darse de alta
password:
Artistas más visitados
Publicidad
TOP acordes y tablaturas de Cky
:: Fat f - Cky


Estás en: Inicio > Letra C > Acordes y tablaturas de Cky > Sporadic movement
Sporadic movement
de Cky
Puntúa este acorde/tab:      
(0.8/5)
Reportar este acorde/tab
  Añadir a tus favoritos
  Imprimir
Sporadic Movement is perhaps my favorite song off of Infiltrate.Destroy.Rebuild next to 
"Escape from Hellview".  
 
Tuning DCGF (You only need 4 strings to play, so its a full step down minus the top 2 strings which 
are not used in any CKY song) 
 
 
Main Riff: 
 
Guitar 1 
 
|--------------------------------| 
|--------------------------------| 
|---3--------7-----6-----7-----6-| 
|-5---5-3--5---5-5---5-5---5-5---| 
 
Guitar 2 
 
|------------9-----8-----9-----8-| 
|----------7---7-7---7-7---7-7---| 
|---3----------------------------| 
|-5---5-3------------------------| 
 
Both Guitars before verse 
 
|----------9-9-7-5-4--------| 
|--------------------7-5-7--| 
|---3-----------------------| 
|-5---5-3-------------------| 
 
 
"I am sporadic movement, you are sporadic movement": 
 
Both Gtrs 
 
|---------------------------------| 
|---------------------------------|   
|---------------------------------|        repeat main riff 
|-1-1-1-1-1-1-1-1-1-1-1-1-1-1-1-1-| 
 
 
"the energy dissolves you" 
 
|--------------------------------------------------------------------| 
|--------------------------------------------------------------------|   
|--------------------------------------------------------------------| 
|-1-1-1-1-1-1-1-1-1-1-1-1-1-1-1-1--3-3-3-3-3-3-3-3-3-3-3-3-3-3-3-3-3-| 
 
 
"a chemical in the brain so loud" 
 
|--------------------------------------------------------------------| 
|--------------------------------------------------------------------| 
|-0-0-0-0-8-8-8-8--0-0-0-0-7-7-7-7----------5-5-5-5----------3-3-2-2-| 
|-----------------------------------3-3-3-3----------1-1-1-1---------| 
 
Moog break (for guitar) 
 
|----------------| 
|-9-7~------7/12-| 
|-7-5~-5/7--5/10-| 
|------3/5-------| 
 
"I am sporadic movement YOU ARE sporadic- a transformation" (the end) 
 
|-------| 
|-------| 
|-3---5-| 
|-1---3-|
		   
AcordesyTabs.com © 2008 Acordes y Tablaturas para guitarra. Tabs and Chords for guitar. Aviso Legal - Contacto
El uso de este sitio está sujeto a la aceptación de los términos y condiciones (37 usuarios online)