tablaturas, partituras y acordes para guitarra
Busca por banda/artista:
 
y/o título de la canción:
A B C D E F G H I J K L M N O P Q R S T U V W X Y Z 0 1 2 3 4 5 6 7 8 9 / Top 100 tabs
Categorías
Usuarios
usuario:
Darse de alta
password:
Artistas más visitados
Publicidad
TOP acordes y tablaturas de Cky
:: Fat f - Cky


Estás en: Inicio > Letra C > Acordes y tablaturas de Cky > The human drive in hi-fi
The human drive in hi-fi
de Cky
Puntúa este acorde/tab:      
(0.5/5)
Reportar este acorde/tab
  Añadir a tus favoritos
  Imprimir
artist: cky 
song: the human drive in hi-fi 
album: volume 1 
guitarist: chad ginsburg/deron miller 
tabbed by: mike of L51 
effects: distortion, phaser at intro 
 
hey this is my second tab and most people tab it a half step higher but ive played this with the cd
and i think mine sounds better-please rate this 
riff 1 
e ---------------------------------| 
b ---------------------------------| 
g ---------------------------------| 
d -7-7-7-7-7-7-7-7-7-7-7-7-7-7-7-7-| 
a -7-7-7-7-7-7-7-7-7-7-7-7-7-7-7-7-| 
e -5-5-5-5-5-5-5-5-5-5-5-5-5-5-5-5-| 
 
riff 2 
e -------------------------------| 
b -------------------------------| 
g -------------------------------| 
d -------------------------------| 
a -0---3-0-0-0---6-0-5-0-3-0-5-0-| 
e ---3---------------------------| 
 
riff 3 
e -----------------| 
b -----------------| 
g -----------------| 
d -----------------| 
a -0---0---0---0---| 
e -------3---3---3-| 
 
riff 4 
e -----------------------------------------------------------------| 
b -----------------------------------------------------------------| 
g -----------5-5-5---------7-7-7-7-----------5-5-5-7-7-7-7-7-7-7-7-| 
d -7---7-7-7-5-5-5-5---5-5-7-7-7-7-7---7-7-7-5-5-5-7-7-7-7-7-7-7-7-| 
a -7---7-7-7-3-3-3-5---5-5-5-5-5-5-7---7-7-7-3-3-3-5-5-5-5-5-5-5-5-| 
e -5---5-5-5-------3---3-3---------5---5-5-5-----------------------| 
 
riff 5            
e -------5---5---| 
b ---------------| 
g ---------------| 
d -7-------------| 
a -7-------------| 
e -5-------------| 
riff 6 the (0) means to play that only the second time 
e -----------------------------------------------------| 
b -----------------------------------------------------| 
g -----------------------------------------------------| 
d -----------------------------------------------------| 
a -0---0---0---0-3-5---5-3-5-3-5-3-5---5-3-5-3-^5-(0)--| 
e -------3---3-----------------------------------------| 
 
riff 1 x4  -intro 
riff 2 x4 
riff 3 x16 -verse 
riff 4 x2  -chorus 
riff 3 x16 -verse 
riff 4 x2 
riff 5 x1 
riff 2 x6 
riff 4 x4 
riff 3 x9 
riff 6 x1 
riff 3 x1 
riff 6 x1 w/ (0) 
 
thats pretty much it please rate this tab
		   
AcordesyTabs.com © 2008 Acordes y Tablaturas para guitarra. Tabs and Chords for guitar. Aviso Legal - Contacto
El uso de este sitio está sujeto a la aceptación de los términos y condiciones (36 usuarios online)