tablaturas, partituras y acordes para guitarra
Busca por banda/artista:
 
y/o título de la canción:
A B C D E F G H I J K L M N O P Q R S T U V W X Y Z 0 1 2 3 4 5 6 7 8 9 / Top 100 tabs
Categorías
Usuarios
usuario:
Darse de alta
password:
Artistas más visitados
Publicidad
TOP acordes y tablaturas de Cky
:: Fat f - Cky


Estás en: Inicio > Letra C > Acordes y tablaturas de Cky > To all of you
To all of you
de Cky
Puntúa este acorde/tab:      
(0.9/5)
Reportar este acorde/tab
  Añadir a tus favoritos
  Imprimir
-
Tabbed by Joey Lombardi (permanentwaves@hotmail.com)

Standard Tuning (G,D,A,E)


Verse

G|-------------------------------------------------------|
D|-------------------------------------------------------|
A|-4-44-44-44-44-44-44-44-4------------------------------|
E|-------------------------4-44-44-44-44-44-44-44-4------|

G|-------------------------------------------------------|
D|-6-66-66-66-66-66-66-66-64-44-44-44-44-44-44-44--------|
A|-------------------------------------------------------|
E|-------------------------------------------------------|

G|-------------------------------------------------------|
D|-------------------------------------------------------|
A|-------------------------------------------------------|
E|-2-22-22-22-22-22-22-22-24-44-44-44-44-44-44-44-4------|

G|-------------------------------------------------------|
D|-------------------------------------------------------|
A|-------------------------------------------------------|
E|-5-55-55-55-55-55-55-55-57-77-77-77-77-77-77-77-7------|

Chorus

G|-------------------------------------------------------|
D|-------------------------------------------------------|
A|-------------------------------------------------------|
E|-5-55-55-55-55-55-55-55-54-44-44-44-44-44-44-44-4------|

G|-------------------6-66-6------------------------------|
D|------------------6------------------------------------|
A|-4-44-44-44-44-44--------------------------------------|
E|-------------------------7-77-77-77-77-77-77-77-7------|

After Chorus

G|-------------------------------------------------------|
D|-6-66-66-66-66-66-66-66-64-44-44-44-44-44-44-44-4------|
A|-------------------------------------------------------|
E|-------------------------------------------------------|

G|-------------------------------------------------------|
D|-2-22-22-22-22-22-22-22-24-44-44-44-44-44-44-44-4------|
A|-------------------------------------------------------|
E|-------------------------------------------------------|

Play:

Verse x1
Chorus x1
After Chorus x1
Verse x1
Chorus x2
After Chorus x1
Verse x5

Then:

G|------------------------------------------------------------|
D|------------------------------------------------------------|
A|-4-44-44-44-44-44-44-44-4-----------------------------------|
E|-------------------------4-44-44-44-44-44-44-44-45~~~~~~~~~~| Let the final A ring.

That's it. This is how I play it, and it should be correct.
		   
AcordesyTabs.com © 2008 Acordes y Tablaturas para guitarra. Tabs and Chords for guitar. Aviso Legal - Contacto
El uso de este sitio está sujeto a la aceptación de los términos y condiciones (54 usuarios online)