tablaturas, partituras y acordes para guitarra
Busca por banda/artista:
 
y/o título de la canción:
A B C D E F G H I J K L M N O P Q R S T U V W X Y Z 0 1 2 3 4 5 6 7 8 9 / Top 100 tabs
Categorías
Usuarios
usuario:
Darse de alta
password:
Artistas más visitados
Publicidad
TOP acordes y tablaturas de Cky
:: Fat f - Cky


Estás en: Inicio > Letra C > Acordes y tablaturas de Cky > Township zoning violation enforcement no
Township zoning violation enforcement no
de Cky
Puntúa este acorde/tab:      
(0.9/5)
Reportar este acorde/tab
  Añadir a tus favoritos
  Imprimir
township zoning violation enforcement notice *last episode of the season* 
 
 
 
viva la bam episode 8 1st season 
 
 
 
TRANSCRIBED BY RUDY GUZMAN 
 
 
 
guzman84@hotmail.com 
 
 
 
 
the songs starts after bam reads the letter of notice 
 
 
home modification without permit 
illegal skating event 
noise ordinance violation 
construction without permit 
illegal castle wall 
public nuisance 
 
                --------               -------- 
e:-------------/----------------------/---------| 
B:------------/----------------------/----------| 
G:-7---------/------------7---------/-----------| 
D:---7-5-7bf/--555555555----7-5-7bf/--555555555-| 
A:----------------------------------------------| 
E:----------------------------------------------| 
 
                 --------                -------- 
e:--------------/-----------------------/--------| 
B:-------------/-----------------------/---------| 
G:-7----------/------------7----------/----------| 
D:---7-5-----/---------------7-5-----/-----------| 
A:-------7bf/---777777777--------7bf/--777777777-| 
E:-----------------------------------------------| 
 
                --------               -------- 
e:-------------/----------------------/---------| 
B:------------/----------------------/----------| 
G:-7---------/------------7---------/-----------| 
D:---7-5-7bf/--555555555----7-5-7bf/--555555555-| 
A:----------------------------------------------| 
E:----------------------------------------------| 
 
                 --------                -------- 
e:--------------/-----------------------/--------| 
B:-------------/-----------------------/---------| 
G:-7----------/------------7----------/----------| 
D:---7-5-----/---------------7-5-----/-----------| 
A:-------7bf/---777777777--------7bf/--777777777-| 
E:-----------------------------------------------| 
 
 
e:--------------| 
B:--------------| 
G:-999999999-12-| 
D:-999999999-12-| 
A:-777777777-10-| 
E:--------------| 
 
e:--------------| 
B:--------------| 
G:-999999999-12-| 
D:-999999999-12-| 
A:-777777777-10-| 
E:--------------| 
 
e:--------------| 
B:--------------| 
G:-999999999-12-| 
D:-999999999-12-| 
A:-777777777-10-| 
E:--------------| 
 
e:--------------| 
B:--------------| 
G:-999999999-12-| 
D:-999999999-12-| 
A:-777777777-10-| 
E:--------------| 
 
e:--------------| 
B:--------------| 
G:-999999999-12-| 
D:-999999999-12-| 
A:-777777777-10-| 
E:--------------| 
 
lets just move 
 
lets move to a new house 
 
its harder to move than staying
		   
AcordesyTabs.com © 2008 Acordes y Tablaturas para guitarra. Tabs and Chords for guitar. Aviso Legal - Contacto
El uso de este sitio está sujeto a la aceptación de los términos y condiciones (35 usuarios online)