tablaturas, partituras y acordes para guitarra
Busca por banda/artista:
 
y/o título de la canción:
A B C D E F G H I J K L M N O P Q R S T U V W X Y Z 0 1 2 3 4 5 6 7 8 9 / Top 100 tabs
Categorías
Usuarios
usuario:
Darse de alta
password:
Artistas más visitados
Publicidad
TOP acordes y tablaturas de Cky
:: Fat f - Cky


Estás en: Inicio > Letra C > Acordes y tablaturas de Cky > Warming up on cky
Warming up on cky
de Cky
Puntúa este acorde/tab:      
(0.7/5)
Reportar este acorde/tab
  Añadir a tus favoritos
  Imprimir
song: warming up on cky4 
 
transcribed by Rudy Guzman 
 
guzman84@hotmail.com 
 
tune 2 steps down 
 
this is between "chester county" and "the 70 mph ***" on the cky4 video, it appears in the 28:26 minutes of the video, the dude from cky "i think" he?s warming up, and he?s playing 
some riffs alone with his Guitar sitting on the floor. 
 
Eb|---------------------------------------------------------------------------------------| 
Bb|---------------------------------------------------------------------------------------| 
F#|--7------------------------------------------------------------------------------------| 
C#|----7--5-7-5---------------------------------------------------------------------------| 
G#|-----------------------7-5-7------7-5-7------------------5-------------7-5-7-------7-5-| 
C#|-------------0-0-0-0-0-------0-0--------0-0-0-0-0--5-7-8----0-0-0-0-0--------0-0-0-----| 
 
Eb|--------------------| 
Bb|--------------------| 
F#|---------7----------| 
C#|---5-------7-5-7----| 
G#|-3---3--------------| 
C#|--------------------| 
 
Eb|---------------------------------------------------------------------------| 
Bb|---------------------------------------------------------------------------| 
F#|---------------------------------------------------------------------------| 
C#|---------------------------------------------------------------------------| 
G#|-----------7-5-7------7-5-7------------------5-------------7-5-7-------7-5-| 
C#|-0-0-0-0-0-------0-0--------0-0-0-0-0--5-7-8----0-0-0-0-0--------0-0-0-----| 
 
Eb|--------------------| 
Bb|--------------------| 
F#|---------7----------| 
C#|---5-------7-5-7----| 
G#|-3---3--------------| 
C#|--------------------| 
 
Eb|------------------------------------------------------------------------------| 
Bb|------------------------------------------------------------------------------| 
F#|-------------------------------------------------5-------------------7--------| 
C#|--------------------------------------------5------5---5--------7------7-5-7--| 
G#|-7-10-------9-5-----7-10------9-5-------3-3---3------3------5-5---5-----------| 
C#|-------0-0------0-0-------0-0------0-0----------------------------------------| 
 
Eb|------------------------------------------------------------------------------| 
Bb|------------------------------------------------------------------------------| 
F#|-------------------------------------------------5-------------------7--------| 
C#|--------------------------------------------5------5---5--------7------7-5-7--| 
G#|-7-10-------9-5-----7-10------9-5-------3-3---3------3------5-5---5-----------| 
C#|-------0-0------0-0-------0-0------0-0----------------------------------------| 
 
Eb|------------------------------------------------------------------------------| 
Bb|------------------------------------------------------------------------------| 
F#|-------------------------------------------------5-------------------7--------| 
C#|--------------------------------------------5------5---5--------7------7-5-7--| 
G#|-7-10-------9-5-----7-10------9-5-------3-3---3------3------5-5---5-----------| 
C#|-------0-0------0-0-------0-0------0-0----------------------------------------| 
 
Eb|------------------------------------------------------------------------------| 
Bb|------------------------------------------------------------------------------| 
F#|-------------------------------------------------5-------------------7--------| 
C#|--------------------------------------------5------5---5--------7------7-5-7--| 
G#|-7-10-------9-5-----7-10------9-5-------3-3---3------3------5-5---5-----------| 
C#|-------0-0------0-0-------0-0------0-0----------------------------------------| 
 
 
Eb|---------------------------------------------------------------------------------------| 
Bb|---------------------------------------------------------------------------------------| 
F#|--7------------------------------------------------------------------------------------| 
C#|----7--5-7-5---------------------------------------------------------------------------| 
G#|-----------------------7-5-7------7-5-7------------------5-------------7-5-7-------7-5-| 
C#|-------------0-0-0-0-0-------0-0--------0-0-0-0-0--5-7-8----0-0-0-0-0--------0-0-0-----| 
 
Eb|--------------------| 
Bb|--------------------| 
F#|---------7----------| 
C#|---5-------7-5-7----| 
G#|-3---3--------------| 
C#|--------------------| 
 
Eb|---------------------------------------------------------------------------| 
Bb|---------------------------------------------------------------------------| 
F#|---------------------------------------------------------------------------| 
C#|---------------------------------------------------------------------------| 
G#|-----------7-5-7------7-5-7------------------5-------------7-5-7-------7-5-| 
C#|-0-0-0-0-0-------0-0--------0-0-0-0-0--5-7-8----0-0-0-0-0--------0-0-0-----| 
 
Eb|--------------------| 
Bb|--------------------| 
F#|---------7----------| 
C#|---5-------7-5-7----| 
G#|-3---3--------------| 
C#|--------------------| 
 
Eb|---------------------------------------------------------------------------| 
Bb|---------------------------------------------------------------------------| 
F#|---------------------------------------------------------------------------| 
C#|---------------------------------------------------------------------------| 
G#|-----------7-5-7------7-5-7------------------5-------------7-5-7-------7-5-| 
C#|-0-0-0-0-0-------0-0--------0-0-0-0-0--5-7-8----0-0-0-0-0--------0-0-0-----| 
 
Eb|--------------------| 
Bb|--------------------| 
F#|---------7----------| 
C#|---5-------7-5-7----| 
G#|-3---3--------------| 
C#|--------------------| 
 
Eb|---------------------------------------------------------------------------| 
Bb|---------------------------------------------------------------------------| 
F#|---------------------------------------------------------------------------| 
C#|---------------------------------------------------------------------------| 
G#|-----------7-5-7------7-5-7------------------5-------------7-5-7-------7-5-| 
C#|-0-0-0-0-0-------0-0--------0-0-0-0-0--5-7-8----0-0-0-0-0--------0-0-0-----| 
 
Eb|--------------------| 
Bb|--------------------| 
F#|---------7----------| 
C#|---5-------7-5-7----| 
G#|-3---3--------------| 
C#|--------------------| 
 
Eb|------------------------------------------------------------------------------| 
Bb|------------------------------------------------------------------------------| 
F#|-------------------------------------------------5-------------------7--------| 
C#|--------------------------------------------5------5---5--------7------7-5-7--| 
G#|-7-10-------9-5-----7-10------9-5-------3-3---3------3------5-5---5-----------| 
C#|-------0-0------0-0-------0-0------0-0----------------------------------------| 
 
Eb|------------------------------------------------------------------------------| 
Bb|------------------------------------------------------------------------------| 
F#|-------------------------------------------------5-------------------7--------| 
C#|--------------------------------------------5------5---5--------7------7-5-7--| 
G#|-7-10-------9-5-----7-10------9-5-------3-3---3------3------5-5---5-----------| 
C#|-------0-0------0-0-------0-0------0-0----------------------------------------| 
 
Eb|------------------------------------------------------------------------------| 
Bb|------------------------------------------------------------------------------| 
F#|-------------------------------------------------5-------------------7--------| 
C#|--------------------------------------------5------5---5--------7------7-5-7--| 
G#|-7-10-------9-5-----7-10------9-5-------3-3---3------3------5-5---5-----------| 
C#|-------0-0------0-0-------0-0------0-0----------------------------------------| 
 
Eb|--------------| 
Bb|--------------| 
F#|--------------| 
C#|--------------| 
G#|--------7-5-7-| 
C#|-0-0-0--------|
		   
AcordesyTabs.com © 2008 Acordes y Tablaturas para guitarra. Tabs and Chords for guitar. Aviso Legal - Contacto
El uso de este sitio está sujeto a la aceptación de los términos y condiciones (40 usuarios online)