tablaturas, partituras y acordes para guitarra
Busca por banda/artista:
 
y/o título de la canción:
A B C D E F G H I J K L M N O P Q R S T U V W X Y Z 0 1 2 3 4 5 6 7 8 9 / Top 100 tabs
Categorías
Usuarios
usuario:
Darse de alta
password:
Artistas más visitados
Publicidad
TOP acordes y tablaturas de Clare bowditch


Autumn bone
de Clare bowditch
Puntúa este acorde/tab:      
(0.4/5)
Reportar este acorde/tab
  Añadir a tus favoritos
  Imprimir
Transcribed by Paul @ OzTabs (oztabs@bigpond.com) 
 
Transcribed: 5th March 2004 
 
Notes: It's quite hard to hear exactly what the 
guitars are doing in this song - but the below  
should be enough to get you playing along to most 
of the song. 
 
MAIN GUITAR PART: 
E-|-----------------------------------------|- 
B-|---0---0---0---0---0---0-------0-------0-|- 
G-|-4---4---4---4---4---4---4h5p4---4h5p4---|- 
D-|-----------------------------------------|- 
A-|-----------------------------------------|- 
E-|-----------------------------------------|- 
 
E-|-----------------------------------|- 
B-|---0---0---0---0---0---0---0---0---|- 
G-|-4---4---4---4---4---4-------------|- 
D-|-------------------------5---4-----|- 
A-|-----------------------------------|- 
E-|-----------------------------------|- 
 
BASS - VERSE: 
G-|-----------------------------------------------|- 
D-|------4--4--5--5--4--4--5--5--5--5--5--5--4--4-|- 
A-|-----------------------------------------------|- 
E-|-----------------------------------------------|- 
 
GUITAR VERSE: 
E-|-----------------------------------|- 
B-|---0---0---0---0---0---0---0---0---|- 
G-|-4---4---4---4---4---4---4---4-----|- 
D-|-----------------------------------|-(etc) 
A-|-----------------------------------|- 
E-|-----------------------------------|- 
 
PRE CHORUS: 
E-|------------------------------------------------------------------|- 
B-|---0---0---0---0---3---3---3---3---3---3---3---3---3---3---2---2--|- 
G-|-4---4---4---4----------------------------------------------------|- 
D-|------------------------------------------------------------------|- 
A-|-----------------5---5---5---5---5---5---5---5---5---5---4---4----|- 
E-|------------------------------------------------------------------|- 
 
CHORUS CHORDS: 
G A F#  
G A F# 
G 
D G A 
G D 
G A 
A# B
		   
AcordesyTabs.com © 2008 Acordes y Tablaturas para guitarra. Tabs and Chords for guitar. Aviso Legal - Contacto
El uso de este sitio está sujeto a la aceptación de los términos y condiciones (26 usuarios online)