tablaturas, partituras y acordes para guitarra
Busca por banda/artista:
 
y/o título de la canción:
A B C D E F G H I J K L M N O P Q R S T U V W X Y Z 0 1 2 3 4 5 6 7 8 9 / Top 100 tabs
Categorías
Usuarios
usuario:
Darse de alta
password:
Artistas más visitados
Publicidad
TOP acordes y tablaturas de Celine dion


Estás en: Inicio > Letra C > Acordes y tablaturas de Celine dion > Tale as old as time
Tale as old as time
de Celine dion
Puntúa este acorde/tab:      
(0.3/5)
Reportar este acorde/tab
  Añadir a tus favoritos
  Imprimir
TALE AS OLD AS TIME, TRUE AS WE CAN BE
G ------------------------
D ------------------------
A -5---5------------------
E --56--56----------------

BARELY EVEN FRIENDS, THEN SOMEVODY BENDS
G ------------------------
D ------------------------
A -56---------------------
E ---123------------------

UNEXPECTEDLY
G ------------------------
D ------------------------
A ------------------------
E -3256-------------------

JUST A LITTLE CHANGE SMALL TO SAY THE LEAST
G ------------------------
D ------------------------
A -5---5------------------
E --56--6-----------------

BOTH A LITTLE SCARED NEITHER UMPREPARED
G ------------------------
D ------------------------
A -5----------------------
E --310-------------------

BEAUTY AND THE BEAST
G ------------------------
D ------------------------
A ---5--------------------
E -56---------------------

EVER JUST THE SAME EVER A SURPRISE
G ------------------------
D ------------------------
A ------------------------
E -52233223---------------

EVER AS BEFORE EVER JUST AS SURE AS THE SUN ON RISE
G ------------------------
D ------------------------
A ------2-13-4------------
E -3233-------5-----------

TALA AS OLD AS TIME, TUNE AS OLD AS SONG
G ------------------------
D ------------------------
A -5--5-------------------
E --56-65-----------------

BITTERSWEET AND STRANGE, FINDING YOU CAN CHANGE LEARNING YOU WHERE WRONG
G ------------------------
D ------------------------
A -65---------------------
E ---23-3256--------------

CERTAIN AS THE SUN, RISING IN THE EAST
G ------------------------
D ------------------------
A -5--5-------------------
E --65-5------------------

TALE AS OLD AS TIME, SONG AS OLD AS RHYME -- BEAUTY AND THE BEAST
G ------------------------
D ------------------------
A -5---------5------------
E --32-0----5-------------

TALE AS OLD AS TIME, SONG AS OLD AS RHYME -- BEAUTY AND THE BEAST
G ------------------------
D ------------------------
A -5--------5-------------
E --32-0---5--------------

4ª TAB....

TEM UMAS PARTES Q FAZEM PONTES PELOS VERSOS E REFRÃO DA CANÇÃO, MAS SÃO TODOS MUITO SIMPLES, 
BASEADOS NESTAS PRÓPRIAS TABS VC TOCA, OK		   
AcordesyTabs.com © 2008 Acordes y Tablaturas para guitarra. Tabs and Chords for guitar. Aviso Legal - Contacto
El uso de este sitio está sujeto a la aceptación de los términos y condiciones (25 usuarios online)