tablaturas, partituras y acordes para guitarra
Busca por banda/artista:
 
y/o título de la canción:
A B C D E F G H I J K L M N O P Q R S T U V W X Y Z 0 1 2 3 4 5 6 7 8 9 / Top 100 tabs
Categorías
Usuarios
usuario:
Darse de alta
password:
Artistas más visitados
Publicidad
TOP acordes y tablaturas de Guitar hero


3s and 7s
de Guitar hero
Puntúa este acorde/tab:      
(0.1/5)
Reportar este acorde/tab
  Añadir a tus favoritos
  Imprimir
Intro:
G|---------------------------|---------------------------|
D|-----------6-6---6---------|----------6-6---6----------|
A|-----4---------6---8-----8-|----4---------6---8-----8--|
E|--6-----6-------------8----|-6-----6-------------8-----|

Verse:
G|---------------------------|---------------------------|
D|-----------6-6---6---------|----------6-6---6----------| 
A|-----4---------6---8-----8-|----4---------6---8-----8--| 
E|--6-----6-------------8----|-6-----6-------------8-----| x5

Chorus:

G|-------------|------------|------------|------------|
D|-------------|------------|------------|------------|
A|-------------|------------|------------|------------|
E|---0-0--2-2--|--4-4--0-0--|--0-0--2-2--|--2-2--4-4--| x2

Guitar solo - same as verse
Verse
Chorus

Bridge
G|------------|-----------|-----------|-----------|
D|------------|-----------|-----------|-----------|
A|------------|-----------|-----------|-----------|
E|--1--1-1--1-|-4--4-4--4-|-3--3-3--3-|-6--6-6--6-|

G|------------|-----------|-----------|-----------|
D|------------|-----------|-----------|-----------|
A|------------|-----------|-----------|-----------|
E|--5--5-5--5-|-8--8-8--8-|-(b9)-(b9)(b9)-(b9)|-6--6-6--6-| x4

G|------------|-----------|-------------|-------------|
D|------------|-----------|-------------|-------------|
A|------------|-----------|-------------|-------------|
E|--1--1-1--1-|-1--1-1--1-|-(b9)(b9)(b9)(b9)(b9)(b9)|-6-6-6-6-6-6-| x3

Bass Solo
G|---------------------------|---------------------------|
D|-----------6-6---6---------|----------6-6---6----------|
A|-----4---------6---8-----8-|----4---------6---8~------|
E|--6-----6-------------8----|-6-----6-------------------|

Guitar solo - same as verse

end with
G|---------------------------|---------------------------|
D|-----------6-6---6---------|----------6-6---6----------|
A|-----4---------6---8-----8-|----4---------6---8--------| END
E|--6-----6-------------8----|-6-----6-------------------|		   
AcordesyTabs.com © 2008 Acordes y Tablaturas para guitarra. Tabs and Chords for guitar. Aviso Legal - Contacto
El uso de este sitio está sujeto a la aceptación de los términos y condiciones (35 usuarios online)