tablaturas, partituras y acordes para guitarra
Busca por banda/artista:
 
y/o título de la canción:
A B C D E F G H I J K L M N O P Q R S T U V W X Y Z 0 1 2 3 4 5 6 7 8 9 / Top 100 tabs
Categorías
Usuarios
usuario:
Darse de alta
password:
Artistas más visitados
Publicidad
TOP acordes y tablaturas de Coal chamber


Loco cor ver
de Coal chamber
Puntúa este acorde/tab:      
(0.5/5)
Reportar este acorde/tab
  Añadir a tus favoritos
  Imprimir
Artist: Coal Chamber 
Song: Loco 
Tabber: Jason Cosley 
 
Tuning B E A D G B  
or  
7 String Standard Tuning BEADGBe 
 
Intro: 
e|--------------------------------------------| 
b|----0---0---0---0---0----0----0----0----0---| 
g|--3^--3^--3^--3^--3^--3----3----3----3------| 
d|--------------------------------------------| 
a|--------------------------------------------| 
e|--------------------------------------------| 
B|--------------------------------------------| 
 
Pre-Verse Fill:                                
e|------------------------------| 
B|------------------------------| 
G|------------------------------| 
D|------------------------------| 
A|-------------2~------(2)------| 
E|--2-2--222---2~------(2)------| 
B|--0-0--000---0~------(0)------| 
pm...........   
 
e|-----------------------------| 
B|-----------------------------| 
G|-----------------------------| 
D|-----------------------------| 
A|-----------------------------| 
E|---4---4---4---4-5-4---------| 
B|-0-2-0-2-0-2-0-2-3-2---------| 
pm............................. 
 
Alternate  4x 
e|-----------------------------|    
B|-----------------------------| 
G|-----------------------------| 
D|-----------------------------| 
A|-----------------------------| 
E|---4---4---4---4-7-5---------| 
B|-0-2-0-2-0-2-0-2-5-3---------| 
pm............................. 
 
Chorus: 
e|----------------------------------------------------------------------| 
B|----------------------------------------------------------------------| 
G|----------------------------------------------------------------------| 
D|----------------------------------------------------------------------| 
A|----------------------------------------------------------------------| 
E|-4-4-x--4--4--4-4-x--4--4--4-4-x--4--4--4-4----4--4--3-3---3--3--3-3--| 
B|-2-2-x--2--2--2-2-x--2--2--2-2-x--2--2--2-2----2--2--1-1---1--1--1-1--| 
 
e|---------------------------------------------| 
B|---------------------------------------------| 
G|---------------------------------------------| 
D|---------------------------------------------| 
A|--------------------------------2~-----(2)---| 
E|--3--3--3-3---3--3--3-3---3--3--2~-----(2)---| 
B|--1--1--1-1---1--1--1-1---1--1--0~-----(0)---| 
 
Post Verse/Outro: 
e|---------------------| 
B|---------------------| 
G|---------------------| 
D|---------------------| 
A|---2-3-4-3---2-3-4---| 
E|---2-3-4-3---2-3-4---|  
B|---0-1-2-1---0-1-2---| 
pm.....................
		   
AcordesyTabs.com © 2008 Acordes y Tablaturas para guitarra. Tabs and Chords for guitar. Aviso Legal - Contacto
El uso de este sitio está sujeto a la aceptación de los términos y condiciones (26 usuarios online)