tablaturas, partituras y acordes para guitarra
Busca por banda/artista:
 
y/o título de la canción:
A B C D E F G H I J K L M N O P Q R S T U V W X Y Z 0 1 2 3 4 5 6 7 8 9 / Top 100 tabs
Categorías
Usuarios
usuario:
Darse de alta
password:
Artistas más visitados
Publicidad
TOP acordes y tablaturas de Cog


Estás en: Inicio > Letra C > Acordes y tablaturas de Cog > Moshiach
Moshiach
de Cog
Puntúa este acorde/tab:      
(0.5/5)
Reportar este acorde/tab
  Añadir a tus favoritos
  Imprimir
Part : Guitar 
Tuning: CGCFAD 
 
Tabbed: Sam Price aka Bluey 
Email : hella96@hotmail.com 

 
Legend 
 
<7> - natural harmonic   ph - pinch harmonic 
pm - palm mute          x - muted string 
h - hammer on           p - pull off 
 - slide down         // - slide up 
b - bend                ~~ - vibrato 
x/// - pick scrape (directions same as slide) 
  
 
0:10 
 
D-------------------| 
A-------------------| 
F-------------------| 
C-------------------| x heaps, until the singing starts 
G-------------------| 
C-9--9-9--9-9--9-9--| 
 
 
1:22                               x3|                                  x1| 
D------------------------------------|------------------------------------| 
A------------------------------------|------------------------------------| 
F------------------------------------|------------------------------------| 
C-9---9---9--0-9-----0-9-0-9/109-0--|-9---9---9--0-9-----0-9/10/129--| x2 
G------------------------------------|------------------------------------| 
C-9---9---9--0-9-----0-9-0-9/109-0--|-9---9---9--0-9-----0-9/10/129--| 
 
 
 
D-------------------| 
A-------------------| 
F-------------------| 
C-------------------| repeat until the singing starts again 
G-------------------| 
C-9--9-9--9-9--9-9--| 
 
 
 
2:02                               x3|                                  x1| 
D------------------------------------|------------------------------------| 
A------------------------------------|------------------------------------| 
F------------------------------------|------------------------------------| 
C-9---9---9--0-9-----0-9-0-9/109-0--|-9---9---9--0-9-----0-9/10/129--| x2 
G------------------------------------|------------------------------------| 
C-9---9---9--0-9-----0-9-0-9/109-0--|-9---9---9--0-9-----0-9/10/129--| 
 
 
D------ 
A------ 
F------ 
C------ x24 
G------ 
C-9--9- 
 
 
 
D--------------- 
A--------------- 
F--------------- 
C--------------- 
G--------------- 
C-9---9-----9--- 
 
 
Solo. some effect 
         x9|        x9| 
D----------|----------| 
A-0h12p0h1-|-0h10p0h1-| 
F----------|----------| x3 
C----------|----------| 
G----------|----------| 
C----------|----------| 
 
        x9|      x18| 
D---------|---------|---------- 
A-0h8p0h1-|-0h7p0h1-|-0-------- 
F---------|---------|---------- 
C---------|---------|---------- 
G---------|---------|---------- 
C---------|---------|---------- 
 
 
 
Distortion 
                |                                            x3| 
D---------------|----------------------------------------------| 
A---------------|----------------------------------------------| 
F---------------|----------------------------------------------| 
C-9-7-0-9-10-12-|-9-9-7-0---10-10-7-0---9-9-7-0--9-7-0-9-10-12-| 
G-9-7-0-9-10-12-|-9-9-7-0---10-10-7-0---9-9-7-0--9-7-0-9-10-12-| 
C-9-7-0-9-10-12-|-9-9-7-0---10-10-7-0---9-9-7-0--9-7-0-9-10-12-| 
 
 
                                  x3| 
D-----------------------------------|------------------------------------| 
A-----------------------------------|------------------------------------| 
F-----------------------------------|------------------------------------| 
C-9---9---9--0-9-----0-9-0-9-0-9-0--|-9---9---9--0-9-----0-9/10/129--| 
G-----------------------------------|------------------------------------| 
C-9---9---9--0-9-----0-9-0-9-0-9-0--|-9---9---9--0-9-----0-9/10/129--| 
 
 
                                  x3| 
D-----------------------------------|---------------------------------------| 
A-----------------------------------|---------------------------------------| 
F-----------------------------------|---------------------------------------| 
C-9---9---9--0-9-----0-9-0-9-0-9-0--|-9---9-9-9-9--9---9-9-9-9--7-7-7-7-7-7-| 
G-----------------------------------|---------------------------------------| 
C-9---9---9--0-9-----0-9-0-9-0-9-0--|-9---9-9-9-9--9---9-9-9-9--7-7-7-7-7-7-| 
 
 
 
theres a strum pattern here, im too lazy to do it all. heres the chords 
D---------------|-----------------------|---------------|------------------ 
A---------------|-----------------------|---------------|------------------ 
F---------------|-----------------------|---------------|------------------ 
C-2--
--5--0--|-2---
---5---0---10--|-2--
--5--0--|-2--0--10---7----- 
G-2--
--5--0--|-2---
---5---0---10--|-2--
--5--0--|-2--0------------- 
C-2--
--5--0--|-2---
---5---0---10--|-2--
--5--0--|-2--0--10---7----- 
 
 
D---------- 
A---------- 
F---------- 
C---------- x32 
G---------- 
C-9h10p9--- 
 
 
D------------------------- 
A------------------------- 
F------------------------- 
C-9-9-7-0---9-7-0-9-10---- 
G-9-9-7-0---9-7-0-9-10---- 
C-9-9-7-0---9-7-0-9-10----
		   
AcordesyTabs.com © 2008 Acordes y Tablaturas para guitarra. Tabs and Chords for guitar. Aviso Legal - Contacto
El uso de este sitio está sujeto a la aceptación de los términos y condiciones (20 usuarios online)