tablaturas, partituras y acordes para guitarra
Busca por banda/artista:
 
y/o título de la canción:
A B C D E F G H I J K L M N O P Q R S T U V W X Y Z 0 1 2 3 4 5 6 7 8 9 / Top 100 tabs
Categorías
Usuarios
usuario:
Darse de alta
password:
Artistas más visitados
Publicidad
TOP acordes y tablaturas de Coheed and cambria


Time consumer
de Coheed and cambria
Puntúa este acorde/tab:      
(0.5/5)
Reportar este acorde/tab
  Añadir a tus favoritos
  Imprimir
Dropped D
|--------------------------------|
|----7-------7-------7-----------|
|5------5>555--5-55>5--55-7878-7-|
|--------------------------------|

|--------------------------------|
|--------------------------------|
|----8------------------------78-|
|8----888-8-6-5-20---3333x2x00---|

|--------------------------------|
|----------------------------2~--|    0=10
|----8-------8--0----0------2~2~-|    2=12
|8------8-888-88-0----000-02~--2~|

|----------------2~~~~~~~~~~~>---|
|----------------0~~~~~~~~~~~>---|
|--------3~~~~~~~----------------|
|5~~~~~~~------------------------|

|-------------------------------------|
|----------------------7--------------|
|5---5---5-5-55---5-5-5--555-878-78-7-|
|-------------------------------------|

|--------------------------------|
|--------------------------------|
|---------------------7888-778-7-|
|8888---8888---000---------------|

|--------------------------------|
|---7------7------7---0~~~~~~~~~~|
|555----555----555---------------|
|---------------------0~~~~~~~~~~|

Verse
|--------------------------------|
|----------------333222333222x---|
|11-11-11-11-11---------------3~~|
|--------------------------------|

Chorus
|-------------------2--2---------|--------------------------------|
|------------------0-00-0--------|--------------------------------|
|------------------------02222333|-11-1111-11-1111-11-1111-11-0---|
|33333333222233330~~~~~~~--------|------------------------------5-|

|------------------2--2----------|---------22>-------------22>----|
|--------022222230--00-0002222333|-55>5333>---0000>55>5333>-------|
|--------------------------------|----------------------------0---|
|33333333------------------------|------------------------------5-|

|-----------------|
|-----------------|
|-----------------|
|3~~~3332~3~2~0~~~|

Bridge
------|--------------------------------|
------|--------------------------------|
3-----|--------------------------------|    2x
------|3---3-33355-5-5-33-33-55-00-0---|

------|--------------------------------|
------|--------------------------------|
3-----|---------------------------5--5-|
------|3-3-3-33355-5-5-33-33-55-00-00-0|

------|-----------------------------------------------------|
------|-----------------------------------------------------|
3-----|----------------55-55-55-55-55--55-55-55-55-55--3~~~~|
------|3-3-3-33355-5-5---------------------------------3~~~~|



after second intro:

|--------------------------------|
|----7--------7-------7----------|
|5--------55-5----55-5----55-5-78|
|--------------------------------|

|--------------------------------|
|---------------------0>---------|
|----10-------10------------78787|
|8-88-----88-8----------------|

|--------------------------------|
|--------------------------------|
|5555555555555555555555555555555|
|--------------------------------|

|--------------------------------|
|--------------------------------|
|--------------------------------|
|00000000000000002222222233333333|

then back to chorus


I know that this is not 100% exactly the way Mic plays it but…I’m too lazy to tell ya exactly.  I got better stuff to do. And it’s not like he plays it the same way every time either so this is about as close as you’re gonna get to exact.
		   
AcordesyTabs.com © 2008 Acordes y Tablaturas para guitarra. Tabs and Chords for guitar. Aviso Legal - Contacto
El uso de este sitio está sujeto a la aceptación de los términos y condiciones (22 usuarios online)