tablaturas, partituras y acordes para guitarra
Busca por banda/artista:
 
y/o título de la canción:
A B C D E F G H I J K L M N O P Q R S T U V W X Y Z 0 1 2 3 4 5 6 7 8 9 / Top 100 tabs
Categorías
Usuarios
usuario:
Darse de alta
password:
Artistas más visitados
Publicidad
TOP acordes y tablaturas de Guitar hero


Estás en: Inicio > Letra G > Acordes y tablaturas de Guitar hero > Mississippi queen
Mississippi queen
de Guitar hero
Puntúa este acorde/tab:      
(0.2/5)
Reportar este acorde/tab
  Añadir a tus favoritos
  Imprimir
2x
G---|------------|------------|-----------|------------|---------|
D---|*-----5----*|------------|---(b9)--7-(b9)|------------|---7---5-|
A---|*-------7-*|------------|-----7-----|------------|-----7---|
E---|--5-7-------|-5/-7-7-7-7-|-7---------|-3/-5-5-5-5-|-5-------|
                             
    VERSE START                                     2X
G---|------------|-----------|-----------|------------|
D---|*-----------|-----------|-----------|-----------*|
A---|*-5h7-7-7-7-|---7-0-5-7-|-5h7-7-7-7-|-------7---*|
E---|------------|-0---------|-----------|-0-3-0------|
                                                                                         
G--------------|-----------|------------|---------|
D--------------|-7-7-0-5-7-|------------|-----7---|
A--------------|-----------|------------|-------7-|
E---3/-5-5-5-5-|-----------|-3/-5-5-5-5-|-5-7-----|
                                                               
G--------------|-----------|------------|---------|
D--------------|-----------|------------|---------|
A---5/-7-7-7-7-|---7-0-5-7-|-5/-7-7-7-7-|-------7-|
E--------------|-0---------|------------|-0-3-0---|
                                                                             
                                                         VERSE END
G--------------|-----------|------------|---------|------|---------|
D--------------|---(b9)0-7-(b9)|------------|---7-0-5-|------|-----5---|
A--------------|-(b9)--------|------------|---------|----7-|-------7|
E---5/-7-7-7-7-|-----------|-3/-5-5-5-5-|-5-------|------|-5-7-----|
                                                                    
            [REPEAT VERSE] [REPEAT VERSE{LEAD}]		   
AcordesyTabs.com © 2008 Acordes y Tablaturas para guitarra. Tabs and Chords for guitar. Aviso Legal - Contacto
El uso de este sitio está sujeto a la aceptación de los términos y condiciones (31 usuarios online)