tablaturas, partituras y acordes para guitarra
Busca por banda/artista:
 
y/o título de la canción:
A B C D E F G H I J K L M N O P Q R S T U V W X Y Z 0 1 2 3 4 5 6 7 8 9 / Top 100 tabs
Categorías
Usuarios
usuario:
Darse de alta
password:
Artistas más visitados
Publicidad
TOP acordes y tablaturas de Guitar hero


Estás en: Inicio > Letra G > Acordes y tablaturas de Guitar hero > Mississippi queen
Mississippi queen
de Guitar hero
Puntúa este acorde/tab:      
(0/5)
Reportar este acorde/tab
  Añadir a tus favoritos
  Imprimir
Riff #1:
--------
e|--------1(b9)----------------------------------------------------------
B|--19b21----19b21r1(b9)-17---------------17-1(b9)17~--------17b1(b9)17~-----
G|------------------------18-16~--16-18------------16b18---------------
D|---------------------------------------------------------------------
A|---------------------------------------------------------------------
E|---------------------------------------------------------------------

e|------------1(b9)-------------------------------------------------------
B|--19b21----19b21r1(b9)-17---------------17-1(b9)17~--------17b1(b9)-17~-----
G|------------------------18-16~--16-18------------16b18----------------
D|----------------------------------------------------------------------
A|----------------------------------------------------------------------
E|----------------------------------------------------------------------

e|------------1(b9)--------------------------
B|--17--19b21----19b21r1(b9)-17~-----17-17~--
G|------------------------------18---------
D|-----------------------------------------
A|-----------------------------------------
E|-----------------------------------------

Verse:
------
e|-------------------------------------------
B|-------------------------------------------
G|-------------------------------------------
D|--7(b9)(b9)(b9)(b9)-7(b9)7~--(b9)-5/7-7-7-7--7-7-5-7-
A|--7(b9)(b9)(b9)(b9)-7(b9)----(b9)-5/7-7-7-7--7-7-5-7-
E|--5/7-7-7-7--5/7-----7--3/5-5-5-5--5-5-3-5-
e|---------------------------------------
B|---------------------------------------
G|--7(b9)(b9)(b9)(b9)----------------------7-(b9)-
D|--7(b9)(b9)(b9)(b9)----------------------7-(b9)-
A|--5/7-7-7-7-----------------------5-7--
E|--5/7-7-7-7--------------0-0-0----5-7--
 ..................If ya know what I mean
e|--------------------------------------
B|--------------------------------------
G|--7(b9)(b9)(b9)(b9)--------------------------
D|--7(b9)(b9)(b9)(b9)--------------------------
A|--5/7-7-7-7------------------------7--
E|--5/7-7-7-7----------------0-2b3-0----
  ....................she taught me.....

e|----------------------
B|----------------------
G|----------------------
D|--5/7-7-7-7--7-7-5-7--
A|--5/7-7-7-7--7-7-5-7--
E|--3/5-5-5-5--5-5-3-5--

e|---------------------------------------
B|---------------------------------------
G|--7(b9)(b9)(b9)(b9)----------------------7-(b9)-
D|--7(b9)(b9)(b9)(b9)----------------------7-(b9)-
A|--5/7-7-7-7-----------------------5-7--
E|--5/7-7-7-7--------------0-0-0----5-7--

e|--------------------------------------
B|--------------------------------------
G|--7(b9)(b9)(b9)(b9)--------------------------
D|--7(b9)(b9)(b9)(b9)--------------------------
A|--5/7-7-7-7------------------------7--
E|--5/7-7-7-7----------------0-2b3-0----

e|------------------------------------------------
B|------------------------------------------------
G|------------------------------------------------
D|--7(b9)(b9)(b9)(b9)-7(b9)7~~-(b9)-5/7-7-7-7--7-7-5-7---2--
A|--7(b9)(b9)(b9)(b9)-7(b9)----(b9)-5/7-7-7-7--7-7-5-7---2--
E|--5/7-7-7-7--5/7-----7--3/5-5-5-5--5-5-3-5---0--

Intro X1

e|------7----------
B|--7b(b9)--7b9r7-5--
G|-----------------  
D|-----------------
A|-----------------
E|-----------------

e|-------------------
B|--7b8-7b8-7b8r7-5--
G|------------------- 
D|-------------------
A|-------------------
E|-------------------

e|-------------------------10----------------
B|--10b12-10b12~----10b12------10b12r10-8----
G|----------------------------------------(b9)-
D|-------------------------------------------
A|-------------------------------------------
E|-------------------------------------------

e|--10b12--10b12~----13b15r13--12-10--
B|------------------------------------
G|------------------------------------
D|------------------------------------
A|------------------------------------
E|------------------------------------

e|--12b10--------------------10-----------------
B|--------12--10b12-10b12~--------10b12r10-8~---
G|----------------------------------------------
D|----------------------------------------------
A|----------------------------------------------
E|----------------------------------------------

Intro X2

Solo:
-----
e|--------1(b9)----------------------1(b9)--------------
B|--19b21----19b21r1(b9)17-----19b21----19b21r1(b9)17---
G|-----------------------18-------------------------
D|--------------------------------------------------
A|--------------------------------------------------
E|--------------------------------------------------

e|----------------------------------------------
B|----------------------------12b14--12-(b9)------
G|--14b16-14-12-14b16-12------------------11-(b9)-
D|-----------------------14---------------------
A|----------------------------------------------
E|----------------------------------------------

e|--------------------------------------------------
B|--------15---------------------15b17-15-12--------
G|--14b16----14b16-14-12-14------------------14-12--
D|--------------------------10----------------------
A|--------------------------------------------------
E|--------------------------------------------------

e|----------------------------------21b23--21b23--21-21b23-21-21b23--
B|--19b21--19b21-------17--21^17-------------------------------------
G|---------------16-18-----------------------------------------------
D|-------------------------------------------------------------------
A|-------------------------------------------------------------------
E|-------------------------------------------------------------------		   
AcordesyTabs.com © 2008 Acordes y Tablaturas para guitarra. Tabs and Chords for guitar. Aviso Legal - Contacto
El uso de este sitio está sujeto a la aceptación de los términos y condiciones (38 usuarios online)