tablaturas, partituras y acordes para guitarra
Busca por banda/artista:
 
y/o título de la canción:
A B C D E F G H I J K L M N O P Q R S T U V W X Y Z 0 1 2 3 4 5 6 7 8 9 / Top 100 tabs
Categorías
Usuarios
usuario:
Darse de alta
password:
Artistas más visitados
Publicidad
TOP acordes y tablaturas de Cradle of filth


Estás en: Inicio > Letra C > Acordes y tablaturas de Cradle of filth > The smoke of her burning
The smoke of her burning
de Cradle of filth
Puntúa este acorde/tab:      
(0.3/5)
Reportar este acorde/tab
  Añadir a tus favoritos
  Imprimir
Track: 
Album: Damnation and a day
tab by gothik666 (danimanson666@hotmail.com)
standard tunning

riff 1 x2
C-----------------------------------------------------------
D------3-3-5-5-6-6-5-5-3-3-2-2-3-----------3-3--------2-2---
A--3-3-----------------------------3-3-3-3-----3--2-2-----2-
E-----------------------------------------------------------

C------------------3-3--------------------------------------
D------3-3-5-5-6-6-----6-6-5-5-3-----------3-3-5-----2-2----
A--3-3-----------------------------3-3-3-3-------2-2-----2--
E-----------------------------------------------------------

Riff 2 (00:20) x4
C-------------------------------------------------------------------
D-------------------------------------------------------------------
A-------------3-3---------3-3-4-4-------------4-4-3-3-----1-1-------
E-1-1-1-1-1-1-----1-1-1-1---------4-4-4-4-4-4---------4-4-----4-3-1-

Riff 1 again (00:41) x2

Riff 3 (01:02) x3
C------------------------------------------------------------------------------
D------------------------------------------------------------------------------
A-------------------------------3----------------------------------------------
E-3-3---3-6-5---6-3-3---3-5-5-5---3-3---3-6-5---3-2-3-5-3-2-3---8-7-8-10-8-7-4-

a little pause with the guitar of the following riff...

riff 4 (01:32) x4
C--------------------------------------------------------------
D--------------------------------------------------------------
A----------------------------------------------------------5---
E-1-0-0-0-0---0-0---0-0-0-3-3-3-6-1-0-0-0-0---0-0-0-1-0-7----7-

riff 1 again (01:52) x2

riff 2 (02:14) x4
C-------------------------------------------------------------------
D-------------------------------------------------------------------
A-------------3-3---------3-3-4-4-------------4-4-3-3-----1-1-------
E-1-1-1-1-1-1-----1-1-1-1---------4-4-4-4-4-4---------4-4-----4-3-1-
and a variation to the same riff... (02:35) x4
C-------------------------------------------------------------------
D-------------3-3---------3-3-4-4-------------4-4-3-3-----1-1-------
A-1-1-1-1-1-1-----1-1-1-1---------4-4-4-4-4-4---------4-4-----4-3-1-
E-------------------------------------------------------------------

Riff 3 again (02:55) x3

Bridge... (03:20) x3, bass enters with drums...
C-------------------------------------------------
D-------------------------------------------------
A-------------------------------------------------
E-3-4--4-6--6-7--7-6--9-7--7-6--4-6--4-3--0-0-1-0-

riff 1 again (03:35) x2

end... (03:56) x4 (play it slowly and holding the notes...)
C--------------------------------
D--------------------------------
A--------------------------------
E-1-------4---6---1----1-3-4---6-

   Note: this tab has been corrected because of a tunning problem, it must be all right now. thanx.
		   
AcordesyTabs.com © 2008 Acordes y Tablaturas para guitarra. Tabs and Chords for guitar. Aviso Legal - Contacto
El uso de este sitio está sujeto a la aceptación de los términos y condiciones (16 usuarios online)