tablaturas, partituras y acordes para guitarra
Busca por banda/artista:
 
y/o título de la canción:
A B C D E F G H I J K L M N O P Q R S T U V W X Y Z 0 1 2 3 4 5 6 7 8 9 / Top 100 tabs
Categorías
Usuarios
usuario:
Darse de alta
password:
Artistas más visitados
Publicidad
TOP acordes y tablaturas de Guitar hero


Estás en: Inicio > Letra G > Acordes y tablaturas de Guitar hero > The number of the beast
The number of the beast
de Guitar hero
Puntúa este acorde/tab:      
(0.1/5)
Reportar este acorde/tab
  Añadir a tus favoritos
  Imprimir
-----------------------------------------------------
>   Accent                 |      /   Slide up
.   Staccatto              |         Slide down
h   Hammer-on/ pull off    |      :   Repeat
†   Harmonic               |      ~   slight bend 
-----------------------------------------------------


---------------------------|-----------11----12----14------14-------14-------
---------------------------|.-12-12-12----12----12----12-12---12-12----12-12-
---------------------------|.------------------------------------------------
---------------------------|-------------------------------------------------
Intro - Recite Bible verse

-14-------14-----------11----12-----14-------14-------14-------14-------14---
----12-12----12--12-12----12----12-----12-12----12-12----12-12----12-12------
-----------------------------------------------------------------------------
-----------------------------------------------------------------------------
 Vocals enter

----------(b9)---10----12-------12-------12-------12----------(b9)---10----14----
-10-10-10---10----10----10-10----10-10----10-10----10-10-10---10----10----12-
-----------------------------------------------------------------------------
-----------------------------------------------------------------------------

----14--------14--------14---|---------->----------->----------------------->
-12----12--12----12--12-----.|-0-0-0-0--0--0-0-0-0--0------------>--0-0-0-0-0
----------------------------.|--------------------------3-3-3-3--3-----------
-----------------------------|-----------------------------------------------
                                                                    End Intro
                                                       
-----------------------------------------------------------------------------
-----------------------------------------------------------------------------
-3h5-5-5-5--5-5-5-5--5-5-5-5--3h5-5-5-5--5-5-5-5--5-5-5-5--3h5-5-5-5--5-5-5-5
-----------------------------------------------------------------------------
Faster

-----------------------------------------------------------------------------
-----------------------------------------------------------------------------
-5-5-5-5--3-3-3-3-3-2-----5-5-5-5--5-5-5---3h5-5-5-5--5-5-5-5--5-5-5-5--3h5-5
-----------------------3-----------------------------------------------------

-----------------------------------------------------------------------------
-----------------------------------------------------------------------------
-5-5-5--5-5-5-5--5-5-5-5--3h5-5-5-5--5-5-5-5--5-5-5-5--3-3-3-3-3-2----5-5-5-5
--------------------------------------------------------------------3--------

-------------------------------------------------------------------7---------
---------------------------------------------------------------5-7---7--5----
-5-5-5---3-3-3-3--3-3-3--2-2-2-2--2-2-2-2--3-3-3-3--3-3-3--55----------------
-----------------------------------------------------------------------------
         "Six..Six six..."

-----------------------------------------------------------------------------
-----------------------------------------------------------------------------
-3-3-3-3--3-3-3--2-2-2-2--2-2-2-2--3-3-3-3--3-3-3-3h5-5-5-5--5-5-5-5--5-5-5-5
-----------------------------------------------------------------------------

-----------------------------------------------------------------------------
-----------------------------------------------------------------------------
-3h5-5-5-5--5-5-5-5--5-5-5-5--3h5-5-5-5--5-5-5-5--5-5-5-5--3-3-3-3-3-2----5-5
------------------------------------------------------------------------3----
 "Torches blaze..."

-----------------------------------------------------------------------------
-----------------------------------------------------------------------------
-5-5--5-5-5--3h5-5-5-5--5-5-5-5--5-5-5-5--3h5-5-5-5--5-5-5-5--5-5-5-5--3h5-5-
-----------------------------------------------------------------------------

-----------------------------------------------------------------------------
-----------------------------------------------------------------------------
-5-5--5-5-5-5--5-5-5-5--3-3-3-3-3-2-----5-5-5-5--5-5-5--3-3-3-3--3-3-3--2-2-2
-------------------------------------3---------------------------------------

------------------------------------7----------------------------------------
--------------------------------5-7---7-5------------------------------------
-2--2-2-2-2--3-3-3-3--3-3-3--55-----------3-3-3-3--3-3-3--2-2-2-2--2-2-2-2--3
-----------------------------------------------------------------------------

-----------------------------------------------------------------------------
-------------------7-------7-------(b9)------(b9)-------10-----------10---10-----
-3-3-3--3-3-3--5-5---5-5-5---5-7-7---7-7-7---7---8-8----10-10-10----8----8-8-
-----------------------------------------------------------------------------
                Intermission 

-----------------------------------------------------------------------------
10----10---------7-------7-------(b9)------(b9)------10----------10----10---10---
---8-8---8--5-5----5-5-5---5-7-7---7-7-7---(b9)8-8----10-10-10----10---8-8--8-8
-----------------------------------------------------------------------------

-----------------------------------------------------------------------------
10--------7-------7-------(b9)------(b9)------10----------10----10-----10----10--
---8--5-5---5-5-5---5-7-7---7-7-7---7-8-8----10-10-10----10----8-8----8-8---8
-----------------------------------------------------------------------------

-----------------------------------------------------------------------|
-----7-------7-------(b9)------(b9)------10----------10----10------10------|
-5-5---5-5-5---5-7-7---7-7-7---7-8-8----10-10-10----10-----8-8----8-8--|
-----------------------------------------------------------------------|
                                                                  
-----------------------------------------------------------------------------
-----------------------------------------------------------------------------
--1--1-1-1--1-1-1-1--1-1-1-1--1-1-1---------------------------------------0-1
-------------------------------------0-1--1-1-1--1-1-1-1--1-1-1-1--1-1-1-----
Guitar Solo

-----------------------------------------------------------------------------
-----------------------------------------------------------------------------
-1-1-1--1-1-1-1--1-1-1-1--1-1-1---------------------------------------0-1--1-
---------------------------------0-1--1-1-1--1-1-1-1--1-1-1-1--1-1-1---------

-----------------------------------------------------------------------------
----------------------------------------------------------------------------- 
-1-1--1-1-1-1--1-1-1-1--1-1-1---------------------------------------0-1--1-1-
-------------------------------0-1--1-1-1--1-1-1-1--1-1-1-1--1-1-1-----------

---------------------------------------------------------------------------.-
--------------------------------------------------------------------7-7-7--5-
-1--1-1-1-1--1-1-1-1--1-1-1--------------------------------------------------
-----------------------------0-1--1-1-1--1-1-1-1--1-1-1-1--1-1-1-------------

-----7-----5-------------------------------.----5---3------------------------
--7-----7-----7---5--3--7--3--2-3---5-5-5--3--5---5---5--3--1--5--1-------5-5
---------------------------------------------------------------------3-5-----
-----------------------------------------------------------------------------

-----------------------------------------------------------------------------
-5--3---3-3-3--3-3-3-3--3-3-3-3--3-3-3--5--5-5-5-5--5-5-5--7--7-7-7--10-10---
-----------------------------------------------------------------------------
-----------------------------------------------------------------------------
                                                                           
--------------(b9)--------------------4--------------------5-------------------
--------7--(b9)----(b9)-7---------2--4-----4--2--------3--5-----5--3-------7-----
--7--(b9)-----------------0--2-----------------3--5-----------------5--7-------
-----------------------------------------------------------------------------
Guitar Solo 2

-------(b9)-----------7--(b9)-7-----------------4-----------------3--5--3--------
----(b9)-----------7-----------(b9)-------2--4-----4--2--------3-----------5-----
-7---------7--(b9)----------------0--2-----------------3--5--------------------
-----------------------------------------------------------------------------

-------7---------(b9)------------7--(b9)-7-----------------4---------------3--5--
-5--7------7--(b9)------------7-----------(b9)-------2--4-----4--2-------3-------
----------------------7--(b9)----------------0--2-----------------3--5---------
-----------------------------------------------------------------------------

--3-------------7--------(b9)--------------7---------------------4-------------
-----5----5--7------7--(b9)----------7--(b9)----(b9)-7---------2--4-----4--2-------
------------------------------7--(b9)----------------0--2-----------------3--5-
-----------------------------------------------------------------------------

--------3---------------7---------(b9)--/1(b9)--1(b9)1(b9)1(b9)1(b9)-------10---10-10-10-
--3--5-----5--3------7----------(b9)----------------------1(b9)17----------------
------------------5----------7-----------------------------------------------
-----------------------------------------------------------------------------

-10---10-10--12--12-12-12-12---12-12--15--15---17--17---/1(b9)--1(b9)1(b9)1(b9)1(b9)---
-----------------------------------------------------------------------------
-----------------------------------------------------------------------------
-----------------------------------------------------------------------------

-10---10-10-10-10---10--10---12---12-12-12-12---12---12---15--15----17---17-|
----------------------------------------------------------------------------|
----------------------------------------------------------------------------|
----------------------------------------------------------------------------|
                                                                    End Solo

-----------------------------------------------------------------------------
-----------------------------------------------------------------------------
-3h5-5-5-5--5-5-5-5--5-5-5-5--3h5-5-5-5--5-5-5-5--5-5-5-5--3h5-5-5-5--5-5-5-5
-----------------------------------------------------------------------------

-----------------------------------------------------------------------------
-----------------------------------------------------------------------------
-5-5-5-5--3-3-3-3-3-2-----5-5-5-5--5-5-5---3h5-5-5-5--5-5-5-5--5-5-5-5--3h5-5
-----------------------3-----------------------------------------------------

-----------------------------------------------------------------------------
-----------------------------------------------------------------------------
-5-5-5--5-5-5-5--5-5-5-5--3h5-5-5-5--5-5-5-5--5-5-5-5--3-3-3-3-3-2----5-5-5-5
--------------------------------------------------------------------3--------

-------------------------------------------------------------------7---------
---------------------------------------------------------------5-7---7--5----
-5-5-5---3-3-3-3--3-3-3--2-2-2-2--2-2-2-2--3-3-3-3--3-3-3--55----------------
-----------------------------------------------------------------------------
                          
----------------------------------------------------|
----------------------------------------------------|
-3-3-3-3--3-3-3--2-2-2-2--2-2-2-2--3-3-3-3--3-3-3-3-|
----------------------------------------------------|

----------11----12----14------14-------14-------14------14-----------11------
-12-12-12----12----12----12-12---12-12----12-12---12-12----12--12-12----12---
-----------------------------------------------------------------------------
-----------------------------------------------------------------------------
Outro

12----14--------14-------14-------14-------14------------(b9)---10----12-------
---12-----12-12----12-12----12-12----12-12------10-10-10---10----10----10-10-
-----------------------------------------------------------------------------
-----------------------------------------------------------------------------

-12-------12-------12----------(b9)---10----14-------14--------14--------14---|
----10-10----10-10----10-10-10---10----10----12-12----12--12----12--12-----.|
---------------------------------------------------------------------------.|
----------------------------------------------------------------------------|

---------->----------->---------------------.----------||
-0-0-0-0--0--0-0-0-0--0------------>--0-0-0-0-->->->---||
--------------------------3-3-3-3--3-----------5-3-5--||
-------------------------------------------------------||		   
AcordesyTabs.com © 2008 Acordes y Tablaturas para guitarra. Tabs and Chords for guitar. Aviso Legal - Contacto
El uso de este sitio está sujeto a la aceptación de los términos y condiciones (19 usuarios online)