tablaturas, partituras y acordes para guitarra
Busca por banda/artista:
 
y/o título de la canción:
A B C D E F G H I J K L M N O P Q R S T U V W X Y Z 0 1 2 3 4 5 6 7 8 9 / Top 100 tabs
Categorías
Usuarios
usuario:
Darse de alta
password:
Artistas más visitados
Publicidad
TOP acordes y tablaturas de Final fantasy


Chocobo theme
de Final fantasy
Puntúa este acorde/tab:      
(1.3/5)
Reportar este acorde/tab
  Añadir a tus favoritos
  Imprimir
parte 1 2x
e|--3------0--------3--0-----|--0------------0----------- 
B|------------1-----------1--|---------1-----------3----- 
G|---------------2-----------|--------------------------- 
D|---------------------------|--------------------------- 
A|---------------------------|--------------------------- 
E|---------------------------|---------------------------
 
e|---------------------------|-------1--3h5-------------- 
B|--1--1-3-1-----1-----------|--1--1--------------------- 
G|------------3-----------3--|--------------------------- 
D|---------------------------|--------------------------- 
A|---------------------------|--------------------------- 
E|---------------------------|---------------------------

parte 2
e|--5------1-----------1--3--|---8-----3--------0-------- 
B|------------3--0--3--------|--------------------------- 
G|---------------------------|---------------------------
D|---------------------------|--------------------------- 
A|---------------------------|--------------------------- 
E|---------------------------|---------------------------  

e|--1---------------------1--|--0--0-1-0-----0----------- 
B|---------3--0-----0--3-----|------------3--------------
G|---------------0-----------|--------------------------- 
D|---------------------------|--------------------------- 
A|---------------------------|--------------------------- 
E|---------------------------|---------------------------  

e|--5------1-----------1--3--|---8-----3--------0-------- 
B|------------3--0--3--------|--------------------------- 
G|---------------------------|--------------------------- 
D|---------------------------|--------------------------- 
A|---------------------------|--------------------------- 
E|---------------------------|---------------------------  

e|---------------------------|------------3h5----7--8---- 
B|--3--3-5-3-----3-----------|--3--3-5-6----------------- 
G|------------5-----------3--|--------------------------- 
D|---------------------------|--------------------------- 
A|---------------------------|--------------------------- 
E|---------------------------|---------------------------		   
AcordesyTabs.com © 2008 Acordes y Tablaturas para guitarra. Tabs and Chords for guitar. Aviso Legal - Contacto
El uso de este sitio está sujeto a la aceptación de los términos y condiciones (34 usuarios online)