tablaturas, partituras y acordes para guitarra
Busca por banda/artista:
 
y/o título de la canción:
A B C D E F G H I J K L M N O P Q R S T U V W X Y Z 0 1 2 3 4 5 6 7 8 9 / Top 100 tabs
Categorías
Usuarios
usuario:
Darse de alta
password:
Artistas más visitados
Publicidad
TOP acordes y tablaturas de Yngwie malmsteen


Air on a theme
de Yngwie malmsteen
Puntúa este acorde/tab:      
(0.9/5)
Reportar este acorde/tab
  Añadir a tus favoritos
  Imprimir
e-----12----12---------------------12-13h-17p-13s-12-------13--------------------------| 
b---13----13--------13-12--12-13-15-----------------15vb-15--15-13h-15p-13s-12---------| 
g-14----14----14vb-------14---------------------------------------------------14-13vb--| 
 
e--------------12-----------------12-----12-----------------------------------12h-17---| 
b----12h-13h-15---------12h-13h-15--13vb---13h-15p-13p-12-------------------13---------| 
g-14-------------13vb-14---------------------------------14-13-14vb--------14----------| 
d--------------------------------------------------------------------10h-14------------| 
a------------------------------------------------------------------12------------------| 
 
e-12-------------------------------------------------------------------------12h-14h-16-| 
b----13p-12h-13p-12-----16-12---12h-13p-12-16-12---12h-13p-12-12vb-12h-14h-16-----------| 
g------------------14vb------14-----------------14--------------------------------------| 
 
e-17vb-15-14---15h-19p-15s-14----14h-17p-14---------------------------------------------| 
b----------------------------17vb----------17---6---16tr17p-16-14h-16h-17---17----------| 
 
e---------------------------------------------------------17----------------------------| 
b-14--------------14h-15h-17-14--------------14-15-17-18vb---18-17h-18p-17p-15---15vb---| 
g---16-14-14-14-16-------------16-14-14-14-16---------------------------------18--------| 
 
e-------------------------------15---------------------------------------12h-17s-20-----| 
b-12--------------12-13-15-17-17---17-15s-13h-15p-13s-12-13vb----------13---------------| 
g---14-12-12-12-14---------------------------------------------------14-----------------| 
d--------------------------------------------------------------10h-14-------------------| 
a------------------------------------------------------------12-------------------------| 
 
e-20p-17s-12----------------------------------------------------------------------------| 
b-----------13h-15p-12s-12---16-12---12h-13p-12-16-12---12h-13p-12-12vb-12h-14h-16------| 
g-------------------------14------14-----------------14---------------------------------| 
 
e-12h-14h-16-17vb---15-14---15h-19p-15s-14---14h-17p-14---------------------------------} 
b-----------------------------------------17-----------17-16tr17p-16-14h-16---17--------}		   
AcordesyTabs.com © 2008 Acordes y Tablaturas para guitarra. Tabs and Chords for guitar. Aviso Legal - Contacto
El uso de este sitio está sujeto a la aceptación de los términos y condiciones (17 usuarios online)