tablaturas, partituras y acordes para guitarra
Busca por banda/artista:
 
y/o título de la canción:
A B C D E F G H I J K L M N O P Q R S T U V W X Y Z 0 1 2 3 4 5 6 7 8 9 / Top 100 tabs
Categorías
Usuarios
usuario:
Darse de alta
password:
Artistas más visitados
Publicidad
TOP acordes y tablaturas de Muse


Estás en: Inicio > Letra M > Acordes y tablaturas de Muse > Supermassive black hole
Supermassive black hole
de Muse
Puntúa este acorde/tab:      
(0.2/5)
Reportar este acorde/tab
  Añadir a tus favoritos
  Imprimir
Intro riff:

G----------------|----------------|----------------|----------------|
D----------------|----------------|----------------|----------------|
A----------------|----------------|----------------|----------------|
E-0--------------|----------------|-0--------------|----------------|

G----------------|----------------|----------------|----------------|
D----------------|----------------|----------------|----------------|
A----------------|----------------|----------------|----------------|
E-0--------------|----------------|-0--------------|----------------|

G----------------|----------------|----------------|-----------------|
D----------------|----------------|----------------|-----------------|
A----------------|----------------|----------------|-----------------|
E-0-0-3-0-0-3-3-3|-0-0-3-0-0-5-5-3|-0-0-3-0-0-3-3-3|-0-0-3-0-0-5-5-7-|


G----------------|----------------|----------------|----------------|
D----------------|----------------|----------------|----------------|
A----------------|----------------|----------------|----------------|
E-0-0-3-0-0-3-3-3|-0-0-3-0-0-5-5-3|-0-0-3-0-0-3-3-3|-0-0-3-0--------|


VERSE 1

G----------------|----------------|----------------|----------------|
D----------------|----------------|----------------|----------------|
A----------------|----------------|----------------|----------------|
E-0--------------|----------------|----------------|----------------|

G----------------|----------------|----------------|----------------|
D----------------|----------------|----------------|----------------|
A----------------|----------------|----------------|----------------|
E----------------|----------------|----------------|----------------|
(easy, no?)

CHORUS (doublemuff)
oooooooooooooooooooaaaaaaaaaaaaaaaaaaaaaaah you set my soul alight
G----------------|----------------|----------------|-----------------|
D-----7-----7-7-6|-----5----------|-----(b9)----8-7-5|-----------------|
A----------------|----------------|----------------|-----------------|
E-5-5---5-5------|-3-3---3-3-5-5-6|-7-7---7-7------|-0-0-0-2-2-3-3-4-|

G----------------|----------------|----------------|-----------------|
D-----7-----7-7-6|-----5----------|-----(b9)----8-7-5|-----------------|
A----------------|----------------|----------------|-----------------|
E-5-5---5-5------|-3-3---3-3-5-5-6|-7-7---7-7------|---0---2---3---4-|

glaciersmelting   dead of night    superstarssucked supermassive
G----------------|----------------|----------------|-----------------|
D-----7-----7-7-6|-----5----------|-----(b9)----8-7-5|-----------------|
A----------------|----------------|----------------|-----------------|
E-5-5---5-5------|-3-3---3-3-5-5-6|-7-7---7-7------|-0-0-0-2-2-3-3-4-|

glaciersmelting   dead of night    superstarssucked intothesupermassive
G----------------|----------------|----------------|-----------------|
D-----7-----7-7-6|-----5----------|-----(b9)----8-7-5|---(b9)(b9)8-7-7-5-4-|
A----------------|----------------|----------------|-----------------|
E-5-5---5-5------|-3-3---3-3-5-5-6|-7-7---7-7------|-----------------|

VERSE 2
G----------------|----------------|----------------|----------------|
D----------------|----------------|----------------|----------------|
A----------------|----------------|----------------|----------------|
E-0--------------|----------------|-0--------------|----------------|

G----------------|----------------|----------------|----------------|
D----------------|----------------|----------------|----------------|
A----------------|----------------|----------------|----------------|
E-0--------------|----------------|-0--------------|----------------|


CHORUS

POSTCHORUS
(SUPERMASSIVE BLACK HOLE)
G----------------|----------------|----------------|----------------|
D----------------|----------------|----------------|----------------|
A----------------|----------------|----------------|----------------|
E-0--------------|----------------|-0--------------|----------------|

G----------------|----------------|----------------|----------------|
D----------------|----------------|----------------|----------------|
A----------------|----------------|----------------|----------------|
E-0--------------|----------------|-0--------------|----------------|

BRIDGE/SOLO
G----------------|----------------|----------------|-----------------|
D----------------|----------------|----------------|-----------------|
A----------------|----------------|----------------|-----------------|
E-0-0-3-0-0-3-3-3|-0-0-3-0-0-5-5-3|-0-0-3-0-0-3-3-3|-0-0-3-0-0-5-5-7-|


G----------------|----------------|----------------|----------------|
D----------------|----------------|----------------|----------------|
A----------------|----------------|----------------|----------------|
E-0-0-3-0-0-3-3-3|-0-0-3-0-0-5-5-3|-0-0-3-0-0-3-3-3|-0-0-3-0--------|

CHORUS

POSTCHORUS		   
AcordesyTabs.com © 2008 Acordes y Tablaturas para guitarra. Tabs and Chords for guitar. Aviso Legal - Contacto
El uso de este sitio está sujeto a la aceptación de los términos y condiciones (33 usuarios online)