tablaturas, partituras y acordes para guitarra
Busca por banda/artista:
 
y/o título de la canción:
A B C D E F G H I J K L M N O P Q R S T U V W X Y Z 0 1 2 3 4 5 6 7 8 9 / Top 100 tabs
Categorías
Usuarios
usuario:
Darse de alta
password:
Artistas más visitados
Publicidad
TOP acordes y tablaturas de Cypress hill


Estás en: Inicio > Letra C > Acordes y tablaturas de Cypress hill > I ai going out like that
I ai going out like that
de Cypress hill
Puntúa este acorde/tab:      
(0.3/5)
Reportar este acorde/tab
  Añadir a tus favoritos
  Imprimir
Artist: Cypress Hill 
Song-I Ain't Going Out Like That 
 
More Cypress Hill songs for ya...this is the bass riff fpr guitar enjoy 
 
----------------------------------------------------------------------- 
----------------------------------------------------------------------- 
----------------------------------------------------------------------- 
----------------------------------------------------------------------- 
---7-7--------8--------7-7---------8/--------------------------------- 
5--------6-6---------5--------6-6-------------------------------------- 
 
----------------------------------------------------------------------- 
----------------------------------------------------------------------- 
----------------------------------------------------------------------- 
----------------------------------------------------------------------- 
---7-7--------8--------7-7---------8/--------------------------------- 
5--------6-6---------5--------6-6-------------------------------------- 
 
Play this a lot and u got it
		   
AcordesyTabs.com © 2008 Acordes y Tablaturas para guitarra. Tabs and Chords for guitar. Aviso Legal - Contacto
El uso de este sitio está sujeto a la aceptación de los términos y condiciones (36 usuarios online)