tablaturas, partituras y acordes para guitarra
Busca por banda/artista:
 
y/o título de la canción:
A B C D E F G H I J K L M N O P Q R S T U V W X Y Z 0 1 2 3 4 5 6 7 8 9 / Top 100 tabs
Categorías
Usuarios
usuario:
Darse de alta
password:
Artistas más visitados
Publicidad
TOP acordes y tablaturas de Fall out boy


Beat it
de Fall out boy
Puntúa este acorde/tab:      
(0.8/5)
Reportar este acorde/tab
  Añadir a tus favoritos
  Imprimir
. = Palm Mute

Tuning: DADGBe

Guitar 1

Intro. Pt.1
e|-0------------------------------------------------------------------------|
B|-0------------------------------------------------------------------------|
G|-0------------------------------------------------------------------------|
D|-0------0-0-0---0-0-0---------------------3--------0--2---0---------------|
A|-0------0-0-0---0-0-0-----------------0--------5~~-----------3---3--------|
D|-0------0-0-0---0-0-0-------0-----3---------------------------------------|
          . . .   . . .

e|--------------------------------------------------------------------------------|
B|--------------------------------------------------------------------------------|
G|--------------------------------------------------------------------------------|
D|---------------3-------0---2---0------------------------------------------------|
A|-----------0-------5~~------------3---3-3---------------------------------------|
D|---0---3------------------------------------------------------------------------|

Intro. Pt.2 Guitar 1 Stays The Same, Guitar 2 Comes In With

e|--------------------------------------------------------------------------------|
B|---10-10-10-11-10~~---8-8-8--8--------------------------------------------------|
G|--------------------------------------------------------------------------------|
D|--------------------------------------------------------------------------------|
A|--------------------------------------------------------------------------------|
D|--------------------------------------------------------------------------------|

Verse. 1 Pt.1

Guitar 1

e|---------------------------------------------------------------------------|
B|---------------------------------------------------------------------------|
G|---------------------------------------------------------------------------|
D|---0-0-0---10-10-10----0-0-0---10-10-10----8-8-8----10-10-10------------|
A|---0-0-0---10-10-10----0-0-0---10-10-10----8-8-8----10-10-10------------|
D|---0-0-0---10-10-10----0-0-0---10-10-10----8-8-8----10-10-10------------|
     . . .    .  .  .     . . .    .  .  .     . . .     .  .  .

e|-------------------------------------------|
B|-------------------------------------------|
G|-------------------------------------------|
D|---12-12-12--10-10-10---------------------|
A|---12-12-12--10-10-10---------------------|
D|---12-12-12--10-10-10---------------------|
      .  .  .   .  .  .
Verse.1 Pt.2 (this time without Palm Mute.)

e|---------------------------------------------------------------------------|
B|---------------------------------------------------------------------------|
G|---------------------------------------------------------------------------|
D|---0-0-0---10-10-10----0-0-0---10-10-10----8-8-8----10-10-10------------|
A|---0-0-0---10-10-10----0-0-0---10-10-10----8-8-8----10-10-10------------|
D|---0-0-0---10-10-10----0-0-0---10-10-10----8-8-8----10-10-10------------|

e|-------------------------------------------|
B|-------------------------------------------|
G|-------------------------------------------|
D|---12-12-12--10-10-10---------------------|
A|---12-12-12--10-10-10---------------------|
D|---12-12-12--10-10-10---------------------|

Throw in a few muted notes like on the song also inbetween parts

e|-----------------------|
B|-----------------------|
G|-----------------------|
D|---x-x-x---------------|
A|---x-x-x---------------|
D|---x-x-x---------------|

Verse.1 Pt.2 Guitar 2

e|-----------------------------|
B|-----------------------------|
G|-----------------------------|
D|---15---13----------13-------|
A|--------------15-------------|
D|-----------------------------|
      .    .     .     .

Chorus Guitar 1

e|--------------------------------------------------------------------------------|
B|--------------------------------------------------------------------------------|
G|--------------------------------------------------------------------------------|
D|---------------3-------0---2---0------------------------------------------------|
A|-----------0-------5~~------------3---3-----------------------------------------|
D|---0---3------------------------------------------------------------------------|

e|--------------------------------------------------------------------------------|
B|--------------------------------------------------------------------------------|
G|--------------------------------------------------------------------------------|
D|---------------3-------0---2---0------------------------------------------------|
A|-----------0-------5~~------------3---3-3---------------------------------------|
D|---0---3------------------------------------------------------------------------|

Guitar 2

e|--------------------------------------------------------------------------------|
B|---10-10-10-11-10~~---8-8-8--8--------------------------------------------------|
G|--------------------------------------------------------------------------------|
D|--------------------------------------------------------------------------------|
A|--------------------------------------------------------------------------------|
D|--------------------------------------------------------------------------------|

Verse 2 Pt.1

Guitar 1

e|---------------------------------------------------------------------------|
B|---------------------------------------------------------------------------|
G|---------------------------------------------------------------------------|
D|---0-0-0---10-10-10----0-0-0---10-10-10----8-8-8----10-10-10------------|
A|---0-0-0---10-10-10----0-0-0---10-10-10----8-8-8----10-10-10------------|
D|---0-0-0---10-10-10----0-0-0---10-10-10----8-8-8----10-10-10------------|
     . . .    .  .  .     . . .    .  .  .     . . .     .  .  .

e|-------------------------------------------|
B|-------------------------------------------|
G|-------------------------------------------|
D|---12-12-12--10-10-10---------------------|
A|---12-12-12--10-10-10---------------------|
D|---12-12-12--10-10-10---------------------|
      .  .  .   .  .  .
Verse.2 Pt.1 Guitar 2

e|------------------------------------------------|
B|------------------------------------------------|
G|------------------------------------------------|
D|-12-x8---10-x8---12-x7--13---10-x8---8-x8---10x8|
A|------------------------------------------------|
D|------------------------------------------------|
   .....   .....   .....  ..   .....   ....   ....

Verse.2 Pt.2 Guitar 1 (this time without Palm Mute.)

e|---------------------------------------------------------------------------|
B|---------------------------------------------------------------------------|
G|---------------------------------------------------------------------------|
D|---0-0-0---10-10-10----0-0-0---10-10-10----8-8-8----10-10-10------------|
A|---0-0-0---10-10-10----0-0-0---10-10-10----8-8-8----10-10-10------------|
D|---0-0-0---10-10-10----0-0-0---10-10-10----8-8-8----10-10-10------------|

e|-------------------------------------------|
B|-------------------------------------------|
G|-------------------------------------------|
D|---12-12-12--10-10-10---------------------|
A|---12-12-12--10-10-10---------------------|
D|---12-12-12--10-10-10---------------------|

Throw in a few muted notes like on the song also inbetween parts

e|-----------------------|
B|-----------------------|
G|-----------------------|
D|---x-x-x---------------|
A|---x-x-x---------------|
D|---x-x-x---------------|

Verse.2 Pt.2 Guitar 2

e|-----------------------------|
B|-----------------------------|
G|-----------------------------|
D|---15---13----------13-------|
A|--------------15-------------|
D|-----------------------------|
      .    .     .     .

Mini Breakdown Guitar 1

e|--------------------------------------------------------------------------------|
B|------------------------------------------------------------19~-----------------|
G|--------------------------------------------------------------------------------|
D|----0-0-0-----0-0-0----------------0-0-0-----0-0-0------------------------------|
A|----0-0-0-----0-0-0----3~~/5-------0-0-0-----0-0-0------------------------------|
D|----0-0-0-----0-0-0----------------0-0-0-----0-0-0------------------------------|

Mini Breakdown Guitar 2

e|--------------------------------------------------------------------------------|
B|------------------------------------------------------------19~-----------------|
G|--------------------------------------------------------------------------------|
D|----0-0-0-----0-0-0----------------0-0-0-----0-0-0------------------------------|
A|----0-0-0-----0-0-0----3~~/5-------0-0-0-----0-0-0------------------------------|
D|----0-0-0-----0-0-0----------------0-0-0-----0-0-0------------------------------|

Have Yet To Figure Out The Solo Fully So I Wont Post What I Have Just Yet Incase Its 
Will Post It As Soon As Possible Tho. =D

Intro. Pt.1     x1
Intro. Pt.2     x1
Verse. Pt.1     x1
Verse. Pt.2     x1
Chorus.         x4
Verse. Pt.1     x1
Verse. Pt.2     x1
Chorus.         x4
Mini Breakdown  x1
Solo. Pt.1      x1
Solo. Pt.2      x1

| /  slide up
|   slide down
| h  hammer-on
| p  pull-off
| ~  vibrato
| +  harmonic
| x  Mute note		   
AcordesyTabs.com © 2008 Acordes y Tablaturas para guitarra. Tabs and Chords for guitar. Aviso Legal - Contacto
El uso de este sitio está sujeto a la aceptación de los términos y condiciones (33 usuarios online)