tablaturas, partituras y acordes para guitarra
Busca por banda/artista:
 
y/o título de la canción:
A B C D E F G H I J K L M N O P Q R S T U V W X Y Z 0 1 2 3 4 5 6 7 8 9 / Top 100 tabs
Categorías
Usuarios
usuario:
Darse de alta
password:
Artistas más visitados
Publicidad
TOP acordes y tablaturas de Dave matthews band


Big-eyed fish
de Dave matthews band
Puntúa este acorde/tab:      
(0.4/5)
Reportar este acorde/tab
  Añadir a tus favoritos
  Imprimir
                  e|-------0--------------------------- 
                  b|-------0---------------------0----- 
                  g|-------9---------------------4----- 
                  d|-------9----5-5-----5-5----4-----  
                  a|---7---7---3-3-----2-2------2----- 
                  E|---0---0---0-0-----0-0------0-----
 
{Verse} 
Look at this big - eyed fish swimming in the sea oh 
How it dreams to be a bird swoop and diving through the breeze 
So one day caught a big old wave up on to the beach 
Now heŐs dead you see beneath the sea is where a fish should be 
---------------------------------------------- 
{chorus}  Em    C    G    Bm 

Em     C 
But oh God
G           Bm 
Under the weight of life
Em     C    G               Bm 
Things seem brighter on the other side 
------------------------------------------------------- 
{Verse} 

You see this crazy man decided not to breathe 

He turned red and blue - purple, colorful indeed 

No matter how his friends begged and pleaded the man would not concede 

And now heŐs dead you see the silly man should know you got to breathe 
-------------------------------------------------------------------------------- 
{Chorus} 

But oh God 

Under the weight of life 

Things seem brighter on the other side 
 
Oh God 

Under the weight of life 

Things seem so much better on the other side 
G  C  G  D/F# - Em C G D/F# 
No way, no way 
No way out of here 
-------------------------------------------------------------------- 
{Verse} 
You see the little monkey sitting up in his monkey tree 
One day decided to climb down and run off to the city 
But look at him now lost tired living in the street 
As good as dead you see what a monkey does - stay up your tree 
--------------------------------------------------------------------- 
{Chorus} 
But oh God 
Under the weight of life 
Things seem brighter on the other side 
 
Oh God 
Under the weight of life 
Things seem so much better on the other side 
 
No way, no way, no way 
No way out of here 		   
AcordesyTabs.com © 2008 Acordes y Tablaturas para guitarra. Tabs and Chords for guitar. Aviso Legal - Contacto
El uso de este sitio está sujeto a la aceptación de los términos y condiciones (34 usuarios online)