tablaturas, partituras y acordes para guitarra
Busca por banda/artista:
 
y/o título de la canción:
A B C D E F G H I J K L M N O P Q R S T U V W X Y Z 0 1 2 3 4 5 6 7 8 9 / Top 100 tabs
Categorías
Usuarios
usuario:
Darse de alta
password:
Artistas más visitados
Publicidad
TOP acordes y tablaturas de Dave matthews band


Estás en: Inicio > Letra D > Acordes y tablaturas de Dave matthews band > Dream of our fathers
Dream of our fathers
de Dave matthews band
Puntúa este acorde/tab:      
(0.2/5)
Reportar este acorde/tab
  Añadir a tus favoritos
  Imprimir
Transcribed by: Adam Strachn 
Email: CookieMonster912@hotmail.com 
 
Another neat verse riff 
 
Intro/Verse -  
---------------------------------------------------------------| 
---------------------------------------------------------------| 
---------------------------------------------------------------| 
---------4----------4----------7-----------5-------------------| 
-----1----------2------------------4-----------2-------2----5--| 
-2----------0-------------/5-----------5-----------3-----------| 
                                                                               
 
Chorus -  
--------------------------------------------------------| 
--------------------------------------------------------| 
--------------------------------------------------------| 
---------5-----------5-------------------7-----------7--| 
-----7-----------7-------------------5-----------5------| 
-5-----------5-------------------3-----------3----------|                     
 
--------------------------------------------------------| 
--------------------------------------------------------| 
--------------------------------------------------------| 
---------5-----------5-------------------7-----------7--| 
-----5-----------5-------------------5-----------5------| 
-7-----------7-------------------2-----------2----------|                                                                               
 
Chords for the chorus -  
-------------------------------| 
-------------------3-----------| 
-6--------2--------4--------2--| 
-7--------0--------4--------0--| 
-------------------2-----------| 
-5--------3-----------------2--| 
                                                                               
 
Bridge ? ?Rain! Rain on my head!? 
--------------------|---------------------| 
------------10------|-------------10------| 
--------11------11--|---------11------11--| 
-----9--------------|------9--------------| 
--------------------|---------------------| 
-0------------------|--8------------------| 
                                                                               
 
--------------------|-----------------------| 
------------10------|-----------------------| 
---------11-----11--|------7----------7-----| 
------9-------------|---------0----------0--| 
--------------------|-----------------------| 
-10-----------------|--7----------6---------| 
                                                                               
Instead of picking the notes you could also strum them as chords.
		   
AcordesyTabs.com © 2008 Acordes y Tablaturas para guitarra. Tabs and Chords for guitar. Aviso Legal - Contacto
El uso de este sitio está sujeto a la aceptación de los términos y condiciones (36 usuarios online)