tablaturas, partituras y acordes para guitarra
Busca por banda/artista:
 
y/o título de la canción:
A B C D E F G H I J K L M N O P Q R S T U V W X Y Z 0 1 2 3 4 5 6 7 8 9 / Top 100 tabs
Categorías
Usuarios
usuario:
Darse de alta
password:
Artistas más visitados
Publicidad
TOP acordes y tablaturas de Dave matthews band


Fool to think
de Dave matthews band
Puntúa este acorde/tab:      
(0.2/5)
Reportar este acorde/tab
  Añadir a tus favoritos
  Imprimir
Transcribed by: Adam Strachn 
Email: CookieMonster912@hotmail.com 
 
This has a cool little verse riff 
 
Intro/Verse -  
--------------------------------------------| 
--------------------------------------------| 
-------------------------7------------------| 
---------4-----------5-------------4---5p4--| 
-----2-----------3-------------5------------| 
-0------------------------------------------| 
                                                                               
-------------------------------------| 
-------------------------------------| 
---------4------------6-----------4--| 
-----2------------4-----------2------| 
-------------------------------------| 
-3------------5-----------3----------| 
                                                                               
 
Chorus ?  
These are just the chords 
of the notes being picked. 
-5------------5--| 
-5------------5--| 
-6------------7--| 
-7------------7--| 
-5------------5--| 
-----------------|
		   
AcordesyTabs.com © 2008 Acordes y Tablaturas para guitarra. Tabs and Chords for guitar. Aviso Legal - Contacto
El uso de este sitio está sujeto a la aceptación de los términos y condiciones (22 usuarios online)