tablaturas, partituras y acordes para guitarra
Busca por banda/artista:
 
y/o título de la canción:
A B C D E F G H I J K L M N O P Q R S T U V W X Y Z 0 1 2 3 4 5 6 7 8 9 / Top 100 tabs
Categorías
Usuarios
usuario:
Darse de alta
password:
Artistas más visitados
Publicidad
TOP acordes y tablaturas de Dave matthews band


Hey joe
de Dave matthews band
Puntúa este acorde/tab:      
(0.3/5)
Reportar este acorde/tab
  Añadir a tus favoritos
  Imprimir
Well the great jimi hendrix wrote this song and now dave has done a cover for it...its kind of fun to play i think 
Verses 
----------3---2---0----------------------------------------------------------- 
----1-----3---3---2----------------------------------------------------------- 
----0-----0---2---2---1--------0---1------------------------------------------ 
----2-----0---0---2---2----0-------2------------------------------------------ 
-3--3-----2-------0---2--2---2-----2------------------------------------------ 
-------3--3-----------0------------0------------------------------------------ 
                                                                               
Jam 
------------------------------------------------------------------------------ 
------------------------------------------------------------------------------ 
------------------------------------------------------------------------------ 
------------------------------------------------------------------------------ 
-3---------0-2-3-/5---------2-4-5--------------------------------------------- 
---0-1-2-3----------2-3-4-5---------------------------------------------------
		   
AcordesyTabs.com © 2008 Acordes y Tablaturas para guitarra. Tabs and Chords for guitar. Aviso Legal - Contacto
El uso de este sitio está sujeto a la aceptación de los términos y condiciones (43 usuarios online)