tablaturas, partituras y acordes para guitarra
Busca por banda/artista:
 
y/o título de la canción:
A B C D E F G H I J K L M N O P Q R S T U V W X Y Z 0 1 2 3 4 5 6 7 8 9 / Top 100 tabs
Categorías
Usuarios
usuario:
Darse de alta
password:
Artistas más visitados
Publicidad
TOP acordes y tablaturas de Dave matthews band


In my life
de Dave matthews band
Puntúa este acorde/tab:      
(0.7/5)
Reportar este acorde/tab
  Añadir a tus favoritos
  Imprimir
This is a cover song for the group the beatles. This version was played by dave at the John Lennon Tribute. 
Intro 
------5-------------4--------------------------------------------------------- 
-2----------2-3-5---5--------------------------------------------------------- 
-2---------------------------------------------------------------------------- 
------------------------------------------------------------------------------ 
-0--0----0-------------------------------------------------------------------- 
--------------------0--0------------------------------------------------------ 
                                                                               
Verses 
-----------------------1------------------------------------------------------ 
-2--2--------------3---3---2--2----------------------------------------------- 
-2--2--------------4-------2--2----------------------------------------------- 
------------4--4-------0------------------------------------------------------ 
-0--0-----4----4---2-------0--0----------------------------------------------- 
--------2------2-------------------------------------------------------------- 
                                                                               
Chorus 
----------------------------------------2---1--------------------------------- 
--------3--3---3--3---2--2----------3---3---3---2----------------------------- 
--------4--4---0--0---2--2----------4-----------2----------------------------- 
-4--4------------------------4--4-------0---0--------------------------------- 
-4--4---2--2----------0--0---4--4---2-----------0----------------------------- 
-2--2----------3--3----------2--2--------------------------------------------- 
                                                                               
End 
-2---------------------------------------------------------------------------- 
-3---2------------------------------------------------------------------------ 
-----2------------------------------------------------------------------------ 
-0---------------------------------------------------------------------------- 
-----0------------------------------------------------------------------------ 
------------------------------------------------------------------------------
		   
AcordesyTabs.com © 2008 Acordes y Tablaturas para guitarra. Tabs and Chords for guitar. Aviso Legal - Contacto
El uso de este sitio está sujeto a la aceptación de los términos y condiciones (22 usuarios online)