tablaturas, partituras y acordes para guitarra
Busca por banda/artista:
 
y/o título de la canción:
A B C D E F G H I J K L M N O P Q R S T U V W X Y Z 0 1 2 3 4 5 6 7 8 9 / Top 100 tabs
Categorías
Usuarios
usuario:
Darse de alta
password:
Artistas más visitados
Publicidad
TOP acordes y tablaturas de Dave matthews band


Estás en: Inicio > Letra D > Acordes y tablaturas de Dave matthews band > Somewhere over the rainbow
Somewhere over the rainbow
de Dave matthews band
Puntúa este acorde/tab:      
(0.6/5)
Reportar este acorde/tab
  Añadir a tus favoritos
  Imprimir
Performed by Dave Matthews w Phish live 08/09/98  
Tabbed By: Mohammad Ali Aminuddin 
 
Hey DMB fans! Had nothing to do so I tabbed this out by ear so their might be a few mistakes because the guitar didn?t sound too clear but do forgive any flaws, should be pretty close.If you know a better way to play it please e-mail me at aliaminuddin@hotmail.com 
    Enjoy! 
 
 
E|----15-14-10-12-14-15-------10/12-10------------------| 
B|------------------------------------------------------| 
G|-12---------------------12----------------------------| 
D|------------------------------------------------------| 
A|------------------------------------------------------| 
E|------------------------------------------------------| 
 
E|---8-7-------7-8--------------------------10----------| 
B|-------8-10------10--7-8-10-10/12---------------------| 
G|-9---------------------------------12-----------------| 
D|------------------------------------------------------| 
A|------------------------------------------------------| 
E|------------------------------------------------------| 
 
E|-7-10-7-10-7-10-7-10-8-10-8-10-8-10-8-10-12-12--------| 
B|------------------------------------------------------| 
D|------------------------------------------------------| 
G|------------------------------------------------------| 
A|------------------------------------------------------| 
E|------------------------------------------------------| 
                      XXX**********XXX 
E|-14-12------------------------------------------------| 
B|-------15-14-12-10-------this part was pretty --------| 
D|-------------------12----tricky, he uses alt picking -| 
G|-------------------------couldn?t figure it out ------| 
A|------------------------------------------------------| 
E|------------------------------------------------------| 
 
E|-10-7-10-7-10-7-10-7-10-9-12-9-12-9-12-9-12-14-14/16-14-------| 
B|--------------------------------------------------------15-12-| 
D|--------------------------------------------------------------| 
G|--------------------------------------------------------------| 
A|--------------------------------------------------------------| 
E|--------------------------------------------------------------| 
 
Then just start from the top again and finish till the XXX 
And end with this:       E|-15--|  (sounds fine) 
                         B|-12--| 
                         D|-12--|  
 
Well there you go, a very sweet classic done by Dave.  
Sounds heavenly! Enjoy!!
		   
AcordesyTabs.com © 2008 Acordes y Tablaturas para guitarra. Tabs and Chords for guitar. Aviso Legal - Contacto
El uso de este sitio está sujeto a la aceptación de los términos y condiciones (24 usuarios online)