tablaturas, partituras y acordes para guitarra
Busca por banda/artista:
 
y/o título de la canción:
A B C D E F G H I J K L M N O P Q R S T U V W X Y Z 0 1 2 3 4 5 6 7 8 9 / Top 100 tabs
Categorías
Usuarios
usuario:
Darse de alta
password:
Artistas más visitados
Publicidad
TOP acordes y tablaturas de Dave matthews band


Estás en: Inicio > Letra D > Acordes y tablaturas de Dave matthews band > The best of what's around
The best of what's around
de Dave matthews band
Puntúa este acorde/tab:      
(0.1/5)
Reportar este acorde/tab
  Añadir a tus favoritos
  Imprimir
The Best of What’s Around
CD: Under the Table and Dreaming

Tabbed by: krbass Kyle Linder kylebassman2005@yahoo.com

Verse:
G:-------------------------------------------------------------
D:----------------------------7-----------------------------7--
A:----7-7---------------5-55-----5---------------------5-5----5
E:555-----8888-7-5-1-1/-------------8-7-5-55-7-5—1-1/5---------
Play this twice then when you get to the end play
G:-----------
D:7-5--------
A:----7-5----
E:--------8-7

Chorus
G:-------------------------------------------------------------
D:------------11----------11----9-----9---------7--------------
A:------11-11----11—9--------------7------5---------5----------
E:5/7-9------------------------------------------------0-00-4-4
Repeat except at the beginning play
G:-------------------
D:-------------------
A:---------11---11-11
E:5-7/9-9-----9------

G:-----------------------------------------------------
D:-----------------------------------------------------
A:------------------------------4-----2----------------
E:5-3-2-1/21-----5-3-2-1—--5--------------3—---5-3-2-1

Then play the verse and chorus and you go into a jam part, just play the verse twice and then into the chorus

End Jam
G:-------------------------------------------------------------
D:---------11-----------11----------9----------7---------------
A:------11-------11—9-------9—7------7----5------------------
E:5-7/9-------9------------------------------------5---0-0-4444

Play that a few times with improv
		   
AcordesyTabs.com © 2008 Acordes y Tablaturas para guitarra. Tabs and Chords for guitar. Aviso Legal - Contacto
El uso de este sitio está sujeto a la aceptación de los términos y condiciones (33 usuarios online)