tablaturas, partituras y acordes para guitarra
Busca por banda/artista:
 
y/o título de la canción:
A B C D E F G H I J K L M N O P Q R S T U V W X Y Z 0 1 2 3 4 5 6 7 8 9 / Top 100 tabs
Categorías
Usuarios
usuario:
Darse de alta
password:
Artistas más visitados
Publicidad
TOP acordes y tablaturas de Dave matthews band


The last stop
de Dave matthews band
Puntúa este acorde/tab:      
(0.4/5)
Reportar este acorde/tab
  Añadir a tus favoritos
  Imprimir
YO YO! Back atcha with another great dmb song. I'm tabbing this for both versions, live and studio. I'll note which is which. Stefean is prolly the best popular music bassist out there so look up to this man!! Have fun!!!
Part 1
-----------------
-----------------
-----------1-----
-2-2-2-2-3---3-2-
-----------------
Part 2
-----------------------------
-----------------------------
-----------1-2-1-------1-----
-2-2-2-2-3-------3-2-3---3-2-
-----------------------------
Egyptian singing part 
(live)
-------------------
-----4-------------
------------7-9----
-2-2----7-9--------
-------------------
(studio)
-------------------------------
-------------------------------
-------------------------------
-2-2-2-2-2/7-7-7-7/18-18-18-18-
-------------------------------
Now there is one other part in the main verse that is played 
but you'll have figure it out. Its easy to hear.
-----------------------------
-----------------------------
-----------1-----------------
-2-2-2-2-3---3-2/10-109-7-6-
-----------------------------
"..go away and dream.."
-------------------------------------------
-------------------------------------------
---------1-----------1-2-1-2-4-5-4-2-1-----
-2-2-2-3---3-2-0-2-3-------------------3-2-
-------------------------------------------
This part is crazy to, mess around with it alot.
"..we're rightous, we're rightous.."
-----------------------------------------------
-----------------------------------------------
-----------------------------------------------
-/12-12p109-9p7-7-7p5-5h7-5h7-7-7p5-5h7-5h7
-----------------------------------------------
The improv parts:
This was incredibly hard to tab due to the fact that it never sounds the same if you play it over and over. 
-----------------------------------------------------------------------------------
-----------------------------------------------------------------------------------
-------------------------------7-7-7-------------------------12-12-16-20h22-22p20-
-------------------7-7-7-5-5-5-------7-7-7-5-5-5/10h12-10h12-----------------------
-3-3h5-5-5-5h7-7-7-----------------------------------------------------------------
Just derive of of those notes for the 2nd and 3rd ones and listen to the song for gersh sakes!!
These next parts are on the "Live in Chicago" album and contain the parts noted above
Part that bridges the two songs:
--------------------
-------4--------4-4-
--------------------
-2-2-2----2-2-2-----
--------------------
Part 2
-----------------------------
--------9-------7------------
------------------5--6-4-2---
-7-7-7----5-5-5------------2-
-----------------------------
Sweets riff played about 10 times throughout;
--------------------------------
-----------6-8-6-4--------------
-------4-6---------6-4h6p4------
-2-4-6---------------------6--
--------------------------------
Sweeter riff played at "..the wieght of the world.."
--------------------13-15-13-11-------------------
--------------11-13------------ 13-11h13p11-------
-----/9-11-13-------------------------------13---
-2----------------------------------------------2-
--------------------------------------------------
Thats pretty much it!! Its an 11 minute live song so its sumtin to keep u kats and kittins busy. Have a great day, night and life!! All the credit fot this song goes out to Dave Matthews for writing such amasing music!!
		   
AcordesyTabs.com © 2008 Acordes y Tablaturas para guitarra. Tabs and Chords for guitar. Aviso Legal - Contacto
El uso de este sitio está sujeto a la aceptación de los términos y condiciones (32 usuarios online)