tablaturas, partituras y acordes para guitarra
Busca por banda/artista:
 
y/o título de la canción:
A B C D E F G H I J K L M N O P Q R S T U V W X Y Z 0 1 2 3 4 5 6 7 8 9 / Top 100 tabs
Categorías
Usuarios
usuario:
Darse de alta
password:
Artistas más visitados
Publicidad
TOP acordes y tablaturas de Dave matthews band


The maker
de Dave matthews band
Puntúa este acorde/tab:      
(0.2/5)
Reportar este acorde/tab
  Añadir a tus favoritos
  Imprimir
tabbed by Hoppus1039 
Tabbed from Chicago(12/19/98) and Utica 99(1/27/99) 
  
Printable Version of Tab  | Click Here for Lyrics  
 
 
 
Intro 
This part is played while strumming the whole time to get the slide sounds 
E:------------------------ 
B:------------------------ 
G:------------------------ 
D:----2/7--6/7--6/7------- <---2 
A:----3/8--7/8--7/8------- <---3 
E:-1------------------6-- 
   1                  (1)  
 
 
Verse 
Play this once through and then the intro twice for one go around 
E:------------- 
B:------------- 
G:------------- 
D:-7--------7-- <---1 
A:-8--------x-- <---2 
E:-10-------8-- <---4on10(2on8) 
 
 
Chorus 
This leads straight back to the intro 
E:----------------------------------------- 
B:----------------------------------------- 
G:----------------------------------------- 
D:-7------7-------2/7--6/7--7---7-------7-- <---2 
A:-8------x-------3/8--7/8--8---8-------x-- <---3 
E:-6------8----1------------0---6-------8-- <---1on6(3on8) 
               1 
 
 
Jam/Ending 
Play the chords and then listen and you will hear them 
E:----------------------- 
B:----------------------- 
G:----------------------- 
D:-3----------6---5---3-- 
A:-x----------x---x---x-- 
E:-1----------4---3---1-- 
 
Enjoy it!
		   
AcordesyTabs.com © 2008 Acordes y Tablaturas para guitarra. Tabs and Chords for guitar. Aviso Legal - Contacto
El uso de este sitio está sujeto a la aceptación de los términos y condiciones (26 usuarios online)