tablaturas, partituras y acordes para guitarra
Busca por banda/artista:
 
y/o título de la canción:
A B C D E F G H I J K L M N O P Q R S T U V W X Y Z 0 1 2 3 4 5 6 7 8 9 / Top 100 tabs
Categorías
Usuarios
usuario:
Darse de alta
password:
Artistas más visitados
Publicidad
TOP acordes y tablaturas de Dave matthews band


The stone
de Dave matthews band
Puntúa este acorde/tab:      
(0.3/5)
Reportar este acorde/tab
  Añadir a tus favoritos
  Imprimir
great song, great band AWESOME bass player. Stefan improv's alot in this so mix it up.

When the first snare hits after the violin and guitar intro, play this
----------------------
----------------------
---7------------------
-5---5/8-10-10-8-8-7-
----------------------
Right into:
------------------------------
------------------------5-777-
---7-5------------5-777-------
-5-----1/-1/-1/------------
------------------------------
Or you can play this to, this happens sometimes, continue to play both versions throughout whole 
---------------------------------
---------------------------5-777-
---7-5---------------5-777-------
-5-------------------------------
-------5/7-5/7-//------------
Then before the second verse the intro thing is played, right back into the first and second verse versions. this part is played only in the second and following verses, not in the first. listen for placing:
---------------------5------
-------5/17-19---777---777--
---7-5---------5------------
-5--------------------------
----------------------------
into the chorus, play around with it:
---------------------------------
-------/10-9-8-9-8-7.8-7-6-7-6-5-
---7-5---------------------------
-5-------------------------------
---------------------------------
chorus, improv, they go hand in hand in this song:
----------------------------------
----6-666---9-999---7-777---5-555-
-/8-------7-------5-------3-------
----------------------------------
----------------------------------
right into a break thing he does more then once in the song"
-------------
-------------
---7---5---8-
-5---8---6---
-------------
something happens at the end that i dunno how to write on hear. my CD isnt with me so i cant try to figure it out from memory. i dunno play arond with the song
		   
AcordesyTabs.com © 2008 Acordes y Tablaturas para guitarra. Tabs and Chords for guitar. Aviso Legal - Contacto
El uso de este sitio está sujeto a la aceptación de los términos y condiciones (24 usuarios online)