tablaturas, partituras y acordes para guitarra
Busca por banda/artista:
 
y/o título de la canción:
A B C D E F G H I J K L M N O P Q R S T U V W X Y Z 0 1 2 3 4 5 6 7 8 9 / Top 100 tabs
Categorías
Usuarios
usuario:
Darse de alta
password:
Artistas más visitados
Publicidad
TOP acordes y tablaturas de Dave matthews band


True reflections
de Dave matthews band
Puntúa este acorde/tab:      
(0.3/5)
Reportar este acorde/tab
  Añadir a tus favoritos
  Imprimir
Transcribed by: Adam Strachn 
Email: CookieMonster912@hotmail.com 
 
I tabbed this off of the Listener Supported Video 
and CD. This is as accurate as I could get. I'll add  
more as I learn more.  
 
 
Intro/Verse -  
------------------------------|-------------------------------| 
------------------------------|-------------------------------| 
--2--------6h7--x-------------|---2--------6h7--x-------------| 
--2---/7---7----x-----5---7^--|---2---/7---7----x-----5---5^--| 
-(0)----------------------7^--|--(0)----------------------5^--| 
-------------------5----------|--------------------5----------| 
                                                                               
------------------------------|-------------------------| 
------------------------------|-------------------------| 
--2--------6h7--x-------------|---2--------6h7--x--6h7--|  
--2---/7---7----x-----5---7^--|---2---/7---7----x--7----| 
-(0)----------------------7^--|--(0)--------------------| 
-------------------5----------|-------------------------| 
                                                                               
 
Chorus (Find some inspiration . . .) 
-3---------2----------------------| 
-3---------3---------2------------| 
-0---------2---------2---------1--|(in at 0:37) 
-0---------0---------2---------2--| 
-2-------------------0---------2--| 
-3-----------------------------0--| 
                                                                               
(Im in your situation . . .) 
-3---------2----------------------| 
-3---------3---------2---------2--| 
-0---------2---------2---------2--| 
-0---------0---------2---------2--|(in at 0:48) 
-2-------------------0---------0--| 
-3--------------------------------| 
                                                    
 
Verse II (1:01) 
----------------------| 
----------------------|Just stick with the basic 
-2--x--2--2--x--------|strumming pattern and mess 
-2--x--2--2--x--------|around with slides sometimes 
-0--x--0--0--x---2/7--|if you want, makes it sound better 
----------------------| 
                                                                               
(that was yesterday . . . 1:19) 
------------------------------------------| 
------------------------------------------| 
-2--x--2--2--x----------11---x-x--11--11--| 
-2--x--2--2--x----------12---x-x--12--12--| 
-0--x--0--0--x---2/8----10---x-x--10--10--| 
------------------------------------------| 
 
That is the basic pattern you get to deal 
with through the rest of the verse 
 
Going into chorus 1:37                                                                               
-----------------| 
-0--0--0--0---0--| 
-2--2--2--2---2--| 
-2--2--2--2---2--| 
-0--0--0--0---0--| 
-----------------|           
 
Play the chorus                                                                     
 
 
Jam  (Its just F and Am back and forth, 2:27)  
--------------------------------------------------| 
-1--x--1--x--1--x--1--x---1--x--1--x--1--x--1--x--|Play this over 
-2--x--2--x--2--x--2--x---2--x--2--x--2--x--2--x--|and over during 
-3--x--3--x--3--x--3--x---2--x--2--x--2--x--2--x--|Boyd's solo 
-3--x--3--x--3--x--3--x---0--x--0--x--0--x--0--x--| 
-1-----1-----1-----1------------------------------| 
 
 
After Jam (3:26) 
------------------------------|-------------------------------| 
------------------------------|-------------------------------| 
--2--------6h7--x-------------|---2--------6h7--x-------------| 
--2---/7---7----x-----5---7^--|---2---/7---7----x-----5---5^--| 
-(0)----------------------7^--|--(0)----------------------5^--| 
-------------------5----------|--------------------5----------| 
                                                                               
------------------------------| 
------------------------------| 
--2--------6h7--x-------------| 
--2---/7---7----x-----5---7^--| 
-(0)----------------------7^--| 
-------------------5----------| 
 
 
 
 
(in at 3:33)                                                                                                                                                             
--------------------------------------| 
--------------------------------------| 
-2--2--2---x---2--2--2---x---2--2--2--| 
-2--2--2---x---2--2--2---x---2--2--2--| 
-0--0--0---x---0--0--0---x---0--0--0--| 
--------------------------------------| 
                                                                               
 
Verse III  (3:36) 
----------------|-------| 
----------------|-------|Dave mainly just plays these 
-2--2--2--2--x--|-------|chords along with the main verse 
-2--2--2--2--x--|-------|riff as played in verse I. Just 
-0--0--0--0--x--|--2/7--|mess with the basic pattern. 
----------------|-------| 
                                                                               
 
Play the chorus  
 
 
Ending (7:02) 
(Down deep inside of you . . .) 
---1------------| 
---1---------1--| 
---2---------2--| 
---3---------2--| 
---3---------0--| 
---1------------| 
 
 
 Key  
 / = slide 
 x = mute string(s) 
 h = hammer on 
(o) = ghost note (play if you want) 
 ^ = natural harmonic
		   
AcordesyTabs.com © 2008 Acordes y Tablaturas para guitarra. Tabs and Chords for guitar. Aviso Legal - Contacto
El uso de este sitio está sujeto a la aceptación de los términos y condiciones (29 usuarios online)