tablaturas, partituras y acordes para guitarra
Busca por banda/artista:
 
y/o título de la canción:
A B C D E F G H I J K L M N O P Q R S T U V W X Y Z 0 1 2 3 4 5 6 7 8 9 / Top 100 tabs
Categorías
Usuarios
usuario:
Darse de alta
password:
Artistas más visitados
Publicidad
TOP acordes y tablaturas de Corcobado


Estás en: Inicio > Letra C > Acordes y tablaturas de Corcobado > Secuestraré al amor
Secuestraré al amor
de Corcobado
Puntúa este acorde/tab:      
(0.3/5)
Reportar este acorde/tab
  Añadir a tus favoritos
  Imprimir
Coro 1 Inicio del bajo

            secuestrare al amor.....
|---------------------------2------------------------------------|
|----0------0--0---0----2S4---4--------------------------2-------|
|--------------------------------0---0--0---0---2S4---4-----4----|
|----------------------------------------------------------------|

|----------------------------------------------------------------------|esta es la parte del coro
|----------------------------------------------------------------------|y es donde entra el bajo
|--------------------------------------0---0-4-0-----0--0-4-0------0---|en las partes de los(0)
|-0---0--0---0---0--0----0---0--0---0-------------0--------------------|no lo dejen sonar cortenlo para
                                                                    que se escuche como si fuera con el bombo



 intermedio

|------------------------------------9---s--7-6----------------------|el secreto para que esta parte
|-0------0---0--0----------7-----7--11---s--9-7-------------7--------|se escuche como en la cancion
|----------------------7S9----9--------------------7------7---7-0----|es que la toquen con sentimiento
|-----------------------------------------------------5--------------|

|----------------------------------------------------------------------|
|-4------2-4-2----2-4------2-4-2---------------------------------------|
|--------------4-----------------4---0------0-4-0----0------0-4-0--0---|
|--------------------------------------------------0-------------------|

|------------------------------------------------------|
|------------------------------------------------------|
|---------------------------------0------0-4-0----0----|
|-0------0-0-0--0-0------0-0-0--0---------------0------|





 coro 2
|---------------------------2------------------------------------|
|----0------0--0---0----2S4---4--------------------------2-------|
|--------------------------------0---0--0---0---2S4---4-----4----|
|----------------------------------------------------------------|

|-------------------------------------------------------------------------|
|-------------------------------------------------------------------------|
|--------------------------------------0---0-4-0-----0--0-4-0------0------|
|-0---0--0---0---0--0----0---0--0---0-------------0-----------------------|


 coro 3
|---------------------------2------------------------------------|
|----0------0--0---0----2S4---4--------------------------2-------|
|--------------------------------0---0--0---0---2S4---4-----4----|
|----------------------------------------------------------------|

|-------------------------------------------------------------------------|
|-------------------------------------------------------------------------|
|--------------------------------------0---0-4-0-----0--0-4-0------0------|
|-0---0--0---0---0--0----0---0--0---0-------------0-----------------------|

|-------------------------------------------|
|    |---------------------------------|    |esta es la figura que hace la guitarra
|    |-------------0--2--4-------------|    |pero pueden hacerla con el bajo para
|    |-0--0--2--4----------------------|    |que se escuche mas llena
|    |---------------------------------|    |no estoy seguro si el bajo lo hace
|-------------------------------------------|pero se escucha bien


 Final
|--------------------------2---2-s--9------7-6----------------------------|
|-0------0---0--0------2S4---4-----11------9-7------------------7---------|
|---------------------------------------------------7---------7---7--0----|
|------------------------------------------------------5------------------|

|-------------------------------------------------------------------------|
|-------------------------------------------------------------------------|
|-7---7--7--------------------------------------5-------------------------|
|------------0------------------------------------------------------------|


bueno eso es todo espero que les guste la cancion
y la toquen con el sentimiento que debe tener

cualquier duda, correcion o sugerencia escribanme

y si quieren alguna tab en especial no duden en escribirme, gracias

saludos a toda la chatarra de sangre y cielo


                             ***************************************************
                             * Transcrita por: B-e-N-j-A-m-I-n-_-K-a-B-r-E-r-A *
                             ***************************************************		   
AcordesyTabs.com © 2008 Acordes y Tablaturas para guitarra. Tabs and Chords for guitar. Aviso Legal - Contacto
El uso de este sitio está sujeto a la aceptación de los términos y condiciones (40 usuarios online)