tablaturas, partituras y acordes para guitarra
Busca por banda/artista:
 
y/o título de la canción:
A B C D E F G H I J K L M N O P Q R S T U V W X Y Z 0 1 2 3 4 5 6 7 8 9 / Top 100 tabs
Categorías
Usuarios
usuario:
Darse de alta
password:
Artistas más visitados
Publicidad
TOP acordes y tablaturas de Papa Roach


Binge
de Papa Roach
Puntúa este acorde/tab:      
(0.2/5)
Reportar este acorde/tab
  Añadir a tus favoritos
  Imprimir
Intro
        G                                                Bb
E------------------------------------| -----------------------------------------
B------------------------------------| -----------------------------------------
G------------10-10-10-10-10-10-------| -------------10-10--9—9--7-7-7-7-------
D------------------------------------| --8-8-8-8--------------------------------
A--5-5-5-5----8--8--8--8--8--8-------|---6-6-6-6-----8--8--7-7--5-5-5-5-------
E--3-3-3-3---------------------------| --6-6-6-6--------------------------------
 
All X 2  with second guitar on last.

Verse
         G                            4                                    4
E--------------------------| --------------------------|
B--------------------------| --------------------------|
G--------------9-10--------|-------------------9-10----|
D--------------------------| --8-8-8-8-8-8-------------|
A—5-5-5-5-5-5—-7--8--------| --6-6-6-6-6-6—----7—-8----|
E—3-3-3-3-3-3--------------| --6-6-6-6-6-6-------------|


Chorus

Basically power chords!

G      F   G     F
Behave little boy
Bb/Eb                      F
You gotta sit back down
 Bb/Eb                  F                
‘Til you hold your ground
G              F
It’s your time 
G                F
To learn to fight
Bb/Eb                  F
You gotta sit back down 
Bb/Eb                 F
‘Til you hold your ground

Verse riff

Chorus

Middle = intro riff

Bit before chorus = 
               D       Eb
I am on a binge-----

Chorus


End

G
I am on a binge
Bb
I wish things would change
D
Wish they’d re-arrange
F
I’m on a binge---


X3
Then verse riff to end.

Ok that's it
It a coppy of the the original version but the author was in a hurry so 
it was a little bit messy. I made it better and clean so PRAISE ME!!:)
improved by: Wilkowolbers@hotmail.com
		   
AcordesyTabs.com © 2008 Acordes y Tablaturas para guitarra. Tabs and Chords for guitar. Aviso Legal - Contacto
El uso de este sitio está sujeto a la aceptación de los términos y condiciones (9 usuarios online)