tablaturas, partituras y acordes para guitarra
Busca por banda/artista:
 
y/o título de la canción:
A B C D E F G H I J K L M N O P Q R S T U V W X Y Z 0 1 2 3 4 5 6 7 8 9 / Top 100 tabs
Categorías
Usuarios
usuario:
Darse de alta
password:
Artistas más visitados
Publicidad
TOP acordes y tablaturas de Corcobado


Estás en: Inicio > Letra C > Acordes y tablaturas de Corcobado > Desnuda en el pacífico
Desnuda en el pacífico
de Corcobado
Puntúa este acorde/tab:      
(0.5/5)
Reportar este acorde/tab
  Añadir a tus favoritos
  Imprimir
Introduccion

    E E E E E E E E E E E E
||--------0-----------0--------|esta es la guitarra
||------1---1-------1---1------|y esto se toca 6 veces
||----2-------2---2-------2----|
||--2-----------2--------------|Slowly Q=85
||-----------------------------|Compas: 4/4
||-----------------------------|


  S S S S S S S S S S S S S S S S S S S S S S S S Q   E   Q.   Q  E Q
|---------------------------------------------------------------------|despues entra el teclado con esto,
|---------------------------------------------------------------------|aqui se me hizo mas facil
|-----------------------------------------------------0-----------4-2-|ponerle como se debe de tocar,
|---------2-3-5-3-2---------------2-3-5-3-2---------------2-----------|solo sigan los tiempos o mas
|---2-3-5-----------5-3-2---2-3-5-----------5-3-2--------------3------|bien las letras de arriba.
|-5-----------------------5-----------------------5--(5)--------------|esto se toca entre la introduccion
                                                                       de la guitarra


Verso 1

Am                       Em                   G6
Las pestañas te bailan a ritmo del ventilador

Am                          Em                  G6
Mientras tu piel brilla tras el susurro del sol


    E E E E E E E E E E E E
||--------0-----------0--------|esto es el adorno
||------1---1-------1---1------|que junta con la segunda
||----2-------2---2-------2----|estrofa
||--2-----------2--------------|
||-----------------------------|
||-----------------------------|


Am                       Em                   G6
Los pelicanos flotan llevandose en sus picos

Am                      Em-*-E            Am
Un pellisco de amor del vino de nuestros besos



Coro

Am                    Asus4
Desnuda en el pacifico

Dm              Am
nadas en el corazón

Dm        Dsus4    Am
de la playa de mi vida



Intermedio
 Am, Dm, Am, Dsus4, Dm, Am

  Gtr I
   E  E  E  E  E  E  E  E  E  E  E  E  E  E E  E  E E  E  E E E E E  E  E E E E E  E  E E
|--------0--------0--------0--------0-------1-------1-------0-----0-------3-----1-------1---|
|-----1--------1--------1--------1--------3-------3-------1-----1-------3-----3-------3-----|
|--2--------2--------2--------2--------2-------2-------2------2------2------2------2--------|
|-------------------------------------------------------------------------------------------|
|-------------------------------------------------------------------------------------------|
|-------------------------------------------------------------------------------------------|
|
| Gtr II
|  E  E  E  E  E  E  E  E  E  E  E  E  Q.      Q.      H.            Q.            Q.
|-------------------12-13-12----------12------13------12------------15------------13--------|
|----12----13-15-13----------13-15-13-------------------------------------------------------|
|-14----14----------------------------------------------------------------------------------|
|-------------------------------------------------------------------------------------------|
|-------------------------------------------------------------------------------------------|
|-------------------------------------------------------------------------------------------|

  Gtr I
   E  E E  E  E E  E E E E E E E E E
|-------1-------0------0-----0-----0----|esto es todo el intermedio
|-----3-------1------1-----1-----1------|lo separe en dos guitarras pero en realidad
|--2-------2-------2-----2-----2--------|es el teclado, despues entra una voz de mujer
|---------------------------------------|haciendo las notas mas agudas, pero es lo mismo
|---------------------------------------|
|---------------------------------------|
| Gtr II
|  Q  E    Q.      W
|---------13------12--------------------|tambien sigan las letras y los tiempos
|-13-12---------------------------------|
|---------------------------------------|
|---------------------------------------|
|---------------------------------------|
|---------------------------------------|

 Gtr1
    E E E E E E E E E E E E
||--------0-----------0--------|esto se toca
||------1---1-------1---1------|2 veces y se
||----2-------2---2-------2----|mezcla con
||--2-----------2--------------|el verso 2
||-----------------------------|
||-----------------------------|


Verso 2

Am                         Em
 ******** de la carretera ya veo el mar de luces

Am                       Em-*-E        Am
méxico en la noche y la lluvia en el recuerdo



Am                    Asus4
Desnuda en el pacifico

Dm              Am
nadas en el corazón

Dm        Dsus4    Am
de la playa de mi vida


Am                    Asus4
Desnuda en el pacifico

Dm              Am
nadas en el corazón

Dm        Dsus4    Am
de la playa de mi vida


Am                    Asus4
Desnuda en el pacifico

Dm              Am
nadas en el corazón

Dm          E/E7   Am
de la playa de mi vida



  Asus4
|---0---|este es un adorno que se toca
|---3---|solo una vez en donde se indica
|---2---|en la tab, la verdad no se si lo
|---2---|haga la guitarra por que se confunde
|---0---|con el bajo pero, para cantarla con guitarra
|-------|se eschuchan bien

   G6
|---0---|esto tambien solo se toca una vez y
|---0---|es Em pero con el dedo meñique
|---0---|en la sexta cuerda en G
|---2---|
|---2---|
|---3---|


    -*-
|----0----|esto es solo
|----0----|un adorno que
|----0----|hace la guitarra
|----2----|y en realidad es Em
|----2----|solo que se arpegia
|----0----|hacia arriba, y con un poco de distorcion



  Dsus4
|---3---|tambien se toca
|---3---|una vez entre palabras
|---2---|
|---0---|quiero aclarar que este
|-------|si es opcional
|-------|segun como ustedes lo escuchen


bueno eso es todo y para mi se escucha bien con todos los adornos
pero ahi se los dejo a su criterio

nota:en la parte donde esta '*******' es por que no se que diga la letra

nota2: en esta tab si puse cuanto dura cada nota, y si no lo saben leer pues entonces
siganla con la cancion, por que la verdad es mas facil que estar viendo letritas

Duracion de notas
---------------
W - undad;  4t.
H - mitad;  2t.
Q - cuart;  1t.
E - octavo; 1/2t
. - aumenta el doble del valor de la figura


espero que les guste y le entiendan

y para los que la estaban pidiendo, pues ahi esta


si tienen quejas, dudas o algun otro comentario escribanme a mi correo que esta hasta arriba


***************************************************
* Transcrita por: B-e-N-j-A-m-I-n-_-K-a-B-r-E-r-A *
***************************************************		   
AcordesyTabs.com © 2008 Acordes y Tablaturas para guitarra. Tabs and Chords for guitar. Aviso Legal - Contacto
El uso de este sitio está sujeto a la aceptación de los términos y condiciones (23 usuarios online)