tablaturas, partituras y acordes para guitarra
Busca por banda/artista:
 
y/o título de la canción:
A B C D E F G H I J K L M N O P Q R S T U V W X Y Z 0 1 2 3 4 5 6 7 8 9 / Top 100 tabs
Categorías
Usuarios
usuario:
Darse de alta
password:
Artistas más visitados
Publicidad
TOP acordes y tablaturas de Camila


Estás en: Inicio > Letra C > Acordes y tablaturas de Camila > Perderte de nuevo
Perderte de nuevo
de Camila
Puntúa este acorde/tab:      
(0.7/5)
Reportar este acorde/tab
  Añadir a tus favoritos
  Imprimir
Pra ti amiita preciosa para que no pienses q me he
olvidado de ti tu y yo siempre juntos ok....
TKM S4nDrIt4

INTRO:

e---------------
B----------3----
G------0h2------
D—0h2-----------
A---------------
E---------------

  G                   D
e-3--3------------------3---2--2-----------------
B-3--------------------3----3---(3)--------------
G-0-------------------2-----2--------------------
D-0----------------------------------------------
A-2----------------------------------------------
E-3----------------------------------------------
    ya había desilusión, dolor y resignación

   Em                   Am               D
e---------------------------------------------0/2-2
B-0---3-----------------(1)----(1)-------3--3------
G-0-0--------------------2----2----------2---------
D-2----------------------2--2------------0---------
A-2----------------------0-------------------------
E--------------------------------------------------
   el tiempo supo esperar y así la deje de amar

  G                   D
e-3--3------------------3---2--2-------------
B-3--------------------3----3---(3)----------
G-0------------------(2)----2----------------
D-0------------------------------------------
A--------------------------------------------
E--------------------------------------------
     no había mas que decir, había llegado el fin




  Em              Am                D
e------------------0---3--3-----------0/2-2----
B--0---------------1-1--------------3-------3--
G--0----0----------2---------------------------
D--2-2-------------2---------------------------
A--2-------------------------------------------
E----------------------------------------------
     hacia dos años ya, que no me la encontraba

  G                      D
e-3----3----------------(2)--------------------
B-3------3--------------(3)--------------------
G-0--0------------------(2)--------------------
D-0---------------------(0)--------------------
A-2--------------------------------------------
E----------------------------------------------
    estaba aprendiendo como vivir




        G        Bm          Em
e--------3----------2----------0---0------------
B--------3----------3----------0----------------
G--------0----------4----------0----------------
D--------0----------4----------2----------------
A-----------------------------------------------
E-----------------------------------------------
  ya de ti me olvidaba cuando te vi


   G                 G   D  Em  D
e--3------3----------3--2--0-----------
B--3----3------------3--3--0--3--------
G--0-(0)-------------0--2--0--2--------
D--0-----------------0--0--2--0--------
A--------------------------------------
E--------------------------------------
   con la mirada desesperada


   G              D
e--3-------------3---------------------
B--3---------------3---3---------------
G--0-----------2-----------------------
D--0---------4-------------------------
A--------------------------------------
E--------------------------------------
   y fue tan fuerte volver a verte

   Em                     D
e----------------------3/2---------
B--0-----------------3-----3----------
G--0--0----------------------2--------
D--2----------------------------------
A-------------------------------------
E-------------------------------------
   sufrí tanto tiempo por ti

    G              Bm             G
e--3----3--------------2-----3--3-----
B--3-3-----------------------3--------
G--0------------------4------0--------
D--0---------------4---------0--------
A-------------0/2---------------------
E-------------------------------------
    basto mirarte, recuperarte y saber



    D
e---2---2--2--2--2--2-----------------
B---3---3--3--3--3--3-----------------
G---2---2--2--2--2--2-----------------
D--—0---0--0--0--0--0-----------------
A-------------------------------------
E-------------------------------------
   que te irías sin mi


  G              D
Y fue tan fuerte volver a quererte
 Em        D                       H
volver a creer en los dos e--3--1-------
                          B--3--1-(7)---
 Am             Bm
basto mirarte, volver amarte
   Am          D
para perderte de nuevo amor D--------5/7--9------
                            A---5/7-------------


  G                   D                            Em
e-3--3---------------3---2--2-----------------2-3-2-0-0
B-3-----------------3----3---(3)--------------3-3-3-0--
G-0---------------(2)----2--------------------2-2-2-0--
D-0-------------------------------------------------2--
A------------------------------------------------------
E------------------------------------------------------
  senti tanta confusión, al  verte tan fria amor


                   Am                 D
e---------------------------------------------0/2-(2)-
B-------------------1-----(1)----------3----3---------
G--—----------------2----2-------------2--------------
D-------------------2--2---------------0--------------
A-------------------0---------------------------------
E-----------------------------------------------------
   asi fue que comprendi que tu no eras para mi


   G                      D
e--3---3------------------2----
B--3-----3----------------3----
G--0—0--------------------2----
D--0----------------------0----
A------------------------------
E------------------------------
    estaba aprendiendo como vivir



        G        Bm          Em
e-------3----------2----------0---0------------
B-------3----------3----------0----------------
G-------0----------4----------0----------------
D-------0----------4----------2----------------
A----------------------------------------------
E----------------------------------------------
   ya de ti me olvidaba cuando te vi


   G                    G   D  Em  D
e--3------3----------3--2--0-2---------
B--3----3------------3--3--0-3---------
G--0—(0)-------------0--2--0-2---------
D--0-----------------0--0--2-0---------
A---------------------------------5/0--
E--------------------------------------
   con la mirada desesperada

  G              D
y fue tan fuerte volver a verte
  Em                   D
sufri tanto tiempo por ti
    G             Bm           Am
basto mirarte, recuperarte y saber
                D
que te irías sin mi

  G                  D
Y fue tan fuerte volver a quererte
    Em      D                      H
volver a creer en los dos e--3--1-------
                          B--3--1—(7)---

 Am             Bm
basto mirarte, volver amarte
   Am          D
para perderte de nuevo amor

e---------------------0---------------(3)---
B-------3------3--------3------------(3)----
G-----0------0------0----(0)-2-0-----0------
D---2------0------2----------------0--------
A-3------2------0----------------2----------
E-------------------------------------------




AmiºS FºR EvEr
		   
AcordesyTabs.com © 2008 Acordes y Tablaturas para guitarra. Tabs and Chords for guitar. Aviso Legal - Contacto
El uso de este sitio está sujeto a la aceptación de los términos y condiciones (42 usuarios online)