tablaturas, partituras y acordes para guitarra
Busca por banda/artista:
 
y/o título de la canción:
A B C D E F G H I J K L M N O P Q R S T U V W X Y Z 0 1 2 3 4 5 6 7 8 9 / Top 100 tabs
Categorías
Usuarios
usuario:
Darse de alta
password:
Artistas más visitados
Publicidad
TOP acordes y tablaturas de Dead kennedys


Estás en: Inicio > Letra D > Acordes y tablaturas de Dead kennedys > Terminal preppy
Terminal preppy
de Dead kennedys
Puntúa este acorde/tab:      
(0.2/5)
Reportar este acorde/tab
  Añadir a tus favoritos
  Imprimir
e-|-------------------------------------------------------| 
B-|-------------------------------------------------------| 
G-|-------------------------------------------------------| 
D-|-------5-5-----5-5-------5-5-7-7-5-5-------5-5-7-7-5-5-| 
A-|-5-8-8-3-3-8-8-3-3-5-8-8-3-3-5-5-3-3-5-8-8-3-3-5-5-3-3-| 
E-|-3-6-6-----6-6-----3-6-6-------------3-6-6-------------| 
 
e-|------------------------------------------------------------------- 
B-|------------------------------------------------------------------- 
G-|------------------------------------------------------------------- 
D-|-----------------------5------------------------------------------- 
A-|-5-5-8-8-5-5-8-8-5-5-8-3-8-5-5-8-8-5-5-8-8-3-3-3-3-5-5-8-8-5-5-8-8- 
E-|-3-3-6-6-3-3-6-6-3-3-6---6-3-3-6-6-3-3-6-6-1-1-1-1-3-3-6-6-3-3-6-6- 
 
e-|-------------------------| 
B-|-------------------------| 
G-|-------------------------| 
D-|-------5---6-6-5-5-------| 
A-|-5-5-8-3-8-4-4-3-3-8-8-5-| 
E-|-3-3-6---6---------6-6-3-| 
 
e-|-------------------------------------------------------------------------| 
B-|-------------------------------------------------------------------------| 
G-|---------5-5-7-7-5-7---------5-5-7-7-5-7---------5-5-7-7-5-7-------------| 
D-|-------------------------------------------------------------------------| 
A-|-5-5-5-5-------------3-3-3-3-------------5-5-5-5-------------3-3-3-3-5-5-| 
E-|-3-3-3-3-------------1-1-1-1-------------3-3-3-3-------------1-1-1-1-3-3-| 
 
e-|---------------------------------| 
B-|---------------------------------| 
G-|---------------------------------| 
D-|-------5-5-----5-------5-5-7-7-5-| 
A-|-5-8-8-3-3-8-8-3-5-8-8-3-3-5-5-3-| 
E-|-3-6-6-----6-6---3-6-6-----------| 
 
e-|------------------------------------------------------------------- 
B-|------------------------------------------------------------------- 
G-|------------------------------------------------------------------- 
D-|-----------------------5------------------------------------------- 
A-|-5-5-8-8-5-5-8-8-5-5-8-3-8-5-5-8-8-5-5-8-8-3-3-3-3-5-5-8-8-5-5-8-8- 
E-|-3-3-6-6-3-3-6-6-3-3-6---6-3-3-6-6-3-3-6-6-1-1-1-1-3-3-6-6-3-3-6-6- 
 
e-|-------------------------| 
B-|-------------------------| 
G-|-------------------------| 
D-|-------5---6-6-5-5-------| 
A-|-5-5-8-3-8-4-4-3-3-8-8-5-| 
E-|-3-3-6---6---------6-6-3-| 
 
e-|-------------------------------------------------------------------------| 
B-|-------------------------------------------------------------------------| 
G-|---------5-5-7-7-5-7---------5-5-7-7-5-7---------5-5-7-7-5-7-------------| 
D-|-------------------------------------------------------------------------| 
A-|-5-5-5-5-------------3-3-3-3-------------5-5-5-5-------------3-3-3-3-5-5-| 
E-|-3-3-3-3-------------1-1-1-1-------------3-3-3-3-------------1-1-1-1-3-3-| 
 
e-|-----------------------------------------------------------------| 
B-|-----------------------------------------------------------------| 
G-|-----------------------------------------------------------------| 
D-|-----------------------------------------------------------------| 
A-|-8-5-5-5-8-5-5-5-8-5-5-5-8-5-5-5-8-5-5-5-8-5-5-5-8-5-5-5-8-5-5-5-| 
E-|-6-3-3-3-6-3-3-3-6-3-3-3-6-3-3-3-6-3-3-3-6-3-3-3-6-3-3-3-6-3-3-3-| 
 
e-|--------------------------------------------------------------------- 
B-|--------------------------------------------------------------------- 
G-|--------------------------------------------------------------------- 
D-|-------------------------------------------------5------------------- 
A-|-5-5-8-8-5-5-8-8-5-5-8-3-8-5-5-8-8-5-5-8-8-5-5-8-3-8-5-5-8-8-5-5-8-8- 
E-|-3-3-6-6-3-3-6-6-3-3-6---6-3-3-6-6-3-3-6-6-3-3-6---6-3-3-6-6-3-3-6-6- 
 
e-|-------------------------------------------------| 
B-|-------------------------------------------------| 
G-|-------------------------------------------------| 
D-|-------------------------------------------------| 
A-|-5-5-8-8-5-5-8-8-5-5-8-8-5-5-8-8-5-5-5-5-5-5-5-5-| 
E-|-3-3-6-6-3-3-6-6-3-3-6-6-3-3-6-6-3-3-3-3-3-3-3-3-| 
 
e-|------------------------------------------------------------------------- 
B-|------------------------------------------------------------------------- 
G-|---------5-5-7-7-5-7---------5-5-7-7-5-7---------5-5-7-7-5-7------------- 
D-|------------------------------------------------------------------------- 
A-|-5-5-5-5-------------3-3-3-3-------------5-5-5-5-------------3-3-3-3-5-5- 
E-|-3-3-3-3-------------1-1-1-1-------------3-3-3-3-------------1-1-1-1-3-3- 
 
e-|-------------------------------------------------------------------------| 
B-|-------------------------------------------------------------------------| 
G-|---------7-7-9-9-7-9---------7-7-9-9-7-9---------7-7-9-9-7-9-------------| 
D-|-------------------------------------------------------------------------| 
A-|-7-7-7-7-------------5-5-5-5-------------7-7-7-7-------------5-5-5-5-7-7-| 
E-|-5-5-5-5-------------3-3-3-3-------------5-5-5-5-------------3-3-3-3-5-5-| 
 
e-|--------------------------------------------| 
B-|--------------------------------------------| 
G-|-----5-5-9-9-5-5-7-5-------5-5-9-9-5-5-12-9-| 
D-|-7-7-----------------7-7-7------------------| 
A-|--------------------------------------------| 
E-|--------------------------------------------| 
 
e-|----------------------------------------------------------------- 
B-|----------------------------------------------------------------- 
G-|----------------------------------------------------------------- 
D-|----------------------------7-------------------------------7---- 
A-|-7-7-10-10-7-7-10-10-7-7-10-5-10-7-7-10-10-7-7-10-10-7-7-10-5-10- 
E-|-5-5--8--8-5-5--8--8-5-5--8----8-5-5--8--8-5-5--8--8-5-5--8----8- 
 
e-|------------------------------------------------| 
B-|------------------------------------------------| 
G-|------------------------------------------------| 
D-|----------------------------7-------------------| 
A-|-7-7-10-10-7-7-10-10-7-7-10-5-10-7-10-5-10-10-7-| 
E-|-5-5--8--8-5-5--8--8-5-5--8----8-5--8----8--8-5-|
		   
AcordesyTabs.com © 2008 Acordes y Tablaturas para guitarra. Tabs and Chords for guitar. Aviso Legal - Contacto
El uso de este sitio está sujeto a la aceptación de los términos y condiciones (21 usuarios online)