tablaturas, partituras y acordes para guitarra
Busca por banda/artista:
 
y/o título de la canción:
A B C D E F G H I J K L M N O P Q R S T U V W X Y Z 0 1 2 3 4 5 6 7 8 9 / Top 100 tabs
Categorías
Usuarios
usuario:
Darse de alta
password:
Artistas más visitados
Publicidad
TOP acordes y tablaturas de 3 Doors Down


Loser
de 3 Doors Down
Puntúa este acorde/tab:      
(0.6/5)
Reportar este acorde/tab
  Añadir a tus favoritos
  Imprimir
Loser
3 doors down
by Brian S!!!!

This is semi right - i hope
  
Intro a few times :
guitar 1

--2----------------0------------------------------
--2----------------3------------------------------
--3~~~-------------2------------------------------
--------------------------------------------------
--------------------------------------------------
--------------------------------------------------

guitar 2
   F#7(Add4)        Dsus2       
e----------0-----------------0---------------0---------
b------------0-----------------3---------------0-------
g-------3------3-------2---2-----2-0-------3-----3-----
d-----4----------4--0----3--------------4--------------
a---4---------------------------------4----------------
e-2----------------------------------2-----------------


Chorus :
e----------------------------------------------------------
b----------------------5--5--5-----------------------------
g----------------------7--7--7-----------------------------
d-2--------4-4-4-------7--7--7-----------2-----------------
a-2--------4-4-4-------5--5--5-----------2-----------------
e-0--------2-2-2-------------------------0-----------------
   your gettin closer  to pushin me off life's little edge :
   cause im a loser ...

Bridge : HEAVY DISTORTION
                 (palm muted after a few times)
------------------------------------------------------------
------------------------------------------------------------
-----2---5---4----------------------------------------------
-4---2---5---4~--(2---)-------------------------------------
-4---0---3---2~--(2--2)-------------------------------------
-2---------------(0--0)--1--2~-14/~~------------------------

Mandolin Solo : (on acoustic guitar)

-------------------------------------------------------------------
-------------------------------------------------------------------
-------------------------------------------------------------------
-7-7-7-/9-9-9-/11-11-11-/12-12-12-/14-14-14-/16-16-16--x-----------
-------------------------------------------------------------------
-------------------------------------------------------------------

------------------------------------------------------------
------------------------------------------------------------
-13/1413~-11/911/9-7*9--7-6-6/7--6~~-2/42~~~-6-7-7-7-7-7~~~
------------------------------------------------------------
------------------------------------------------------------
------------------------------------------------------------

End on D5
		   
AcordesyTabs.com © 2008 Acordes y Tablaturas para guitarra. Tabs and Chords for guitar. Aviso Legal - Contacto
El uso de este sitio está sujeto a la aceptación de los términos y condiciones (32 usuarios online)