tablaturas, partituras y acordes para guitarra
Busca por banda/artista:
 
y/o título de la canción:
A B C D E F G H I J K L M N O P Q R S T U V W X Y Z 0 1 2 3 4 5 6 7 8 9 / Top 100 tabs
Categorías
Usuarios
usuario:
Darse de alta
password:
Artistas más visitados
Publicidad
TOP acordes y tablaturas de Deftones


Answers
de Deftones
Puntúa este acorde/tab:      
(0.2/5)
Reportar este acorde/tab
  Añadir a tus favoritos
  Imprimir
Guitarist: Stephen Carpenter 
Tabbed by: Brandon Moroch (KurtCobain520@aol.com) 
Tuning:    E,A,D,g,b,e 
Key:       x = muted string      / = slide (up)      h = hammer-on 
           p = pull-off           = slide (down) 
          <#>= feedback          ^ = bend 
 
Ok heres a song for you deftones fans. This song i believe was 
only recorded live. This song dates back from 1991. This is when 
they had their old drummer instead of abe. It is a Reggae type 
song, thats sounds something a little like sublime. I tabbed this  
by ear from the live recording i have. It wasnt easy, it is a bad  
recording, but i got all of the parts. This song has a lot of diff- 
erent parts, and variations of riffs. This song also has a solo to 
it, something new for a deftones song. I just tabbed out all of the  
different parts, if you havent heard this song or dont know the  
order, just be imaginative. If anyone else has tabbed this and finds 
mistakes, email me. Have fun with the song. Enjoy! 
 
 
clean (maybe a light distortion) 
|--------0------------x-------x-----------------|------0----------| 
|--x---3--3-x--3--3---x-3--3--x---3--3--3--3----|--3-3-0----3--3--| 
|--x-x-2--2-xx-3--3---x-2--2--xx--3--3--3--3----|--3p2---x--3--3--| 
|----x-------x-----------------x----------------|--------x--------| 
|-----------------------------------------------|-----------------| 
|-----------------------------------------------|-----------------| 
 
|------------x--------x-----|---------| 
|--x-------x-x-------xx-----|---------| 
|--x-5--5--x-x-5---5-x--5---|--<5^^>--| 
|--x-5--5--x---5---5-x--5---|---------| 
|----3--3------3---3----3---|---------| 
|---------------------------|---------| 
 
distorted all riffs after this are distorted. 
|---------------------------| 
|---------------------------| 
|---------------------------| 
|--5-5x-5-5---7-7----4--2---| 
|--5-5x-5-5---7-7-5--4--2---| 
|--3-3x-3-3-0-5-5-5--2--0---| 
 
 
|-----------------------------------| 
|-----------------------------------| 
|------6-6-66-8-8----6-6-66-5-5-----| 
|--7-7-6-6-66-8-8----6-6-66-5-5-----| 
|--7-7-4-4-44-6-6-2--4-4-44-3-3--2--| 
|--5-5------------0--------------0--| 
 
 
|-----------------------------------------| 
|--2h3-3-3-5-5^---2h3-3-3-3-3-5-5h6p5-----| 
|---------------5----------------------5--| 
|-----------------------------------------| 
|-----------------------------------------| 
|-----------------------------------------| 
 
solo! 
|----------------------------------------------------------------- 
|--/5^--5-5-5^^-5h6-p5^---------11^-11-11^13-------------12------- 
|-----------------------5^--/11--------------/13^--10-12----13^--- 
|----------------------------------------------------------------- 
|----------------------------------------------------------------- 
|----------------------------------------------------------------- 
 
|-------------------------------------------------------------------------------12- 
|-----------------------------------------------------------------/9^-9-9h10h12---- 
|--/12^--11^13--15-13-------------------------10^---10----10^-10^------------------ 
|--------------------------------8-9-11-8-10-----11----11-------------------------- 
|----------------------6-7-9-7-8--------------------------------------------------- 
|---------------------------------------------------------------------------------- 
 
|--10-10h12h15-15-10-10h12h13-10-10h12h15p12p10-10-10h12h13p12-10-12-10^----| 
|---------------------------------------------------------------------------| 
|---------------------------------------------------------------------------| 
|---------------------------------------------------------------------------| 
|---------------------------------------------------------------------------| 
|---------------------------------------------------------------------------| 
 
|-----------------------------------|--------| 
|-----------------------------------|--------| 
|-------10-10-10-108/13-13^-13-13--|--9---| 
|--7-7---x--x--x--x-x--x--x---x--x--|--9---| 
|--7-7---8--8--8--8/11-11^-11-11--|--7---| 
|--5-5------------------------------|--------|
		   
AcordesyTabs.com © 2008 Acordes y Tablaturas para guitarra. Tabs and Chords for guitar. Aviso Legal - Contacto
El uso de este sitio está sujeto a la aceptación de los términos y condiciones (137 usuarios online)