tablaturas, partituras y acordes para guitarra
Busca por banda/artista:
 
y/o título de la canción:
A B C D E F G H I J K L M N O P Q R S T U V W X Y Z 0 1 2 3 4 5 6 7 8 9 / Top 100 tabs
Categorías
Usuarios
usuario:
Darse de alta
password:
Artistas más visitados
Publicidad
TOP acordes y tablaturas de Deftones


Estás en: Inicio > Letra D > Acordes y tablaturas de Deftones > Defunkunknown
Defunkunknown
de Deftones
Puntúa este acorde/tab:      
(0.3/5)
Reportar este acorde/tab
  Añadir a tus favoritos
  Imprimir
Tabbed By: Brandon Moroch (KurtCobain520@aol.com) 
Tuning:    D,A,D,g,b,e 
Key:       <#> = harmonic          h = hammer-on 
           x   = muted string      ~ = sustain (ring out) 
           /   = slide 
 
 
Here is another rarity Deftones song. It was recorded back in 1991 
i beleive it was only recorded live. This song was difficult to tab 
because i did it by ear, and had no guitar, plus Steph played so 
many variations of the riffs below it was hard to keep track, but i 
believe i got them all. Just fool around with this, if you know the 
song, you can figure out the order. Just play around with it if you 
dont know it. if anyone else has tabbed this song, and has found 
mistakes, email me and let me know. I think its pretty accurate. 
 
all riffs are distorted 
|-------------------------------------------| 
|-------------------------------------------| 
|---------4-4-----<3.5>----4---4----4--5----| 
|----xx-x-4-4--<3>------xx-4-x-4-x--4--5----| 
|----xx-x-2-2-----------xx-2-x-0-x--2--3-3--| 
|--0-xx-x----0----------xx---x---xx---0--3--| 
 
|-------------------------| 
|-------------------------| 
|---x-4-4/5---4-----------| 
|--xx-4-4/5-x-4--x-4-4/5--| 
|--xx-2-2/3-x-2--x-2-2/3--| 
|--x------3-x--0-x-2-2/3--| 
 
|---------------------------------|----------------------------| 
|---------------------------------|----------------------------| 
|----4----4---4-4/5--------4---4--|----------4---4-5--x-4------| 
|--x-4-xx-4-x-4-4/5----x-x-4-x-4--|--x-x-2-x-4-x-4-5-xx-4--<3>-| 
|--x-2-xx-2-x-2-2/3-0--x-x-2-x-2--|--x-x-2-x-2-x-2-3-xx-2------| 
|--x---x----x-----3-0--x-x---x----|--x-x---x---x-----x---------| 
 
|----------------------------------| 
|----------------------------------| 
|-----------------------4-6--------| 
|----2---4---5---4---2--4-6--------| 
|----2---4-x-5---4---2--2-4--4/2---| 
|--0-2-x-4-x-5-x-4-0-2-----------0-| 
 
|-------------------------------| 
|-------------------------------| 
|------------------------4--6~--| 
|------------------------4--4~--| 
|----2---4---5---4---2---2--4~--| 
|--x-2-x-4-x-5-x-4-x-2-0----4~--| 
 
|-------------------------------------------| 
|-------------------------------------------| 
|-------------------------------------------| 
|------------4-------------8-/6-----------6-| 
|--6--6--/4---------6-/4----------6-/4----6-| 
|---------------/4--------------------------| 
 
|----------------------------------------| 
|----------------------------------------| 
|--8--8--/6--------8-8/6-----------8-/6--| 
|--8--8--/6----4---8-8/6-----8-/6--8-/6--| 
|--6--6--/4----4---6-6/4--4--8-/6--6-/4--| 
|-----------0--4-------------------------| 
 
|------------------------------------------------------| 
|------------------------------------------------------| 
|--8--8--6-6--6---8-8/6--8/10-10--10-/13-13--13-13-13--| 
|--x--x--x-x--x---x-x/x--x/-x--x---x-/-x--x---x--x--x--| 
|--6--6--4-4--4---6-6/4--6/-8--8---8-/11-11--11-11-11--| 
|------------------------------------------------------| 
 
|-------------------------| 
|-------------------------| 
|-------------------------| 
|--2-x-4-xx-4-x-2--0h2--| 
|--2-x-4-xx-4-x-2--0h2--| 
|--2-x-4-xx-4-x-2--0h2--|
		   
AcordesyTabs.com © 2008 Acordes y Tablaturas para guitarra. Tabs and Chords for guitar. Aviso Legal - Contacto
El uso de este sitio está sujeto a la aceptación de los términos y condiciones (69 usuarios online)