tablaturas, partituras y acordes para guitarra
Busca por banda/artista:
 
y/o título de la canción:
A B C D E F G H I J K L M N O P Q R S T U V W X Y Z 0 1 2 3 4 5 6 7 8 9 / Top 100 tabs
Categorías
Usuarios
usuario:
Darse de alta
password:
Artistas más visitados
Publicidad
TOP acordes y tablaturas de Deftones


Estás en: Inicio > Letra D > Acordes y tablaturas de Deftones > Engine number
Engine number
de Deftones
Puntúa este acorde/tab:      
(0.4/5)
Reportar este acorde/tab
  Añadir a tus favoritos
  Imprimir
Adrenaline
Engine #9
Track 9

Intro/go back after first part of verse

|----------------------------------------------------------------
|----------------------------------------------------------------
|------------------------------2-------------------------------0-
|-2-3-2-0-2-3-2-0-2-3-2-0-2-3-2--2-3-2-0-2-3-2-0-2-3-2-0-2-3-2---

Verse

|-------------------------------------
|-------------------------------------
|-----------------2----------------0--
|-3-3-3-3-3-3-3-3--2-2-2-2-2-2-2-2----

Chorus/2nd part of intro

|---------------------------------------------------------------------
|---------------------------------------------------------------------
|-2-2----2-2----2-2----2-2----5-5-4-4-4h5p4-2-2----2-2----2-2----2-2--
|---------------------------------------------------------------------

Bridge (distortion on bass)

|-----------------------------------------
|-----------------------------------------
|-----------------------------------------
|-0-3-0-3-0-3-0-3-0-3-0-3-0-3-0-3-0-3-0-3-

without distortion

|--------------------- repeat all of the bridge a few times
|---------------------
|---------------------
|-2-3-3-2-1-2-3-3-2-1-

|-------------------------
|-------------------------
|-------------------------
|-3-0-0-3-0-0-3-0-0-3-2-1-

|-------------------------------
|-------------------------------
|-2-2-2-2-2-2-2-2-2-2-2-2-2-2-2-
|-------------------------------

only if god could give me the ability to do song orders.
		   
AcordesyTabs.com © 2008 Acordes y Tablaturas para guitarra. Tabs and Chords for guitar. Aviso Legal - Contacto
El uso de este sitio está sujeto a la aceptación de los términos y condiciones (24 usuarios online)