tablaturas, partituras y acordes para guitarra
Busca por banda/artista:
 
y/o título de la canción:
A B C D E F G H I J K L M N O P Q R S T U V W X Y Z 0 1 2 3 4 5 6 7 8 9 / Top 100 tabs
Categorías
Usuarios
usuario:
Darse de alta
password:
Artistas más visitados
Publicidad
TOP acordes y tablaturas de Deftones


Estás en: Inicio > Letra D > Acordes y tablaturas de Deftones > Far away be quiet and drive
Far away be quiet and drive
de Deftones
Puntúa este acorde/tab:      
(0.3/5)
Reportar este acorde/tab
  Añadir a tus favoritos
  Imprimir
Far Away (Be Quiet And Drive)
Tabbed for four strings and for normal tuning (EADG) By sweetyphoebs@caramail.com


MAIN RIFF
G|----------------------------------------------|
D|----------------------------------------------|
A|-4--4-4-4--4-4--4-4-4-4-2-2-2h3-2-2-2-2-2h3-0-|
E|----------------------------------------------|

variation, played frequently at various times
G|----------------------------------------------|
D|----------------------------------------------|
A|-4--4-4-4--4-4--4-4-4-4-2-2-2h3-2-2-2-2-0-2-0-|
E|----------------------------------------------|

CHORUS
G|----------------------------|
D|-------------0--0--0--0-----|
A|-0--0--0--0-----------------|
E|----------------------------|

G|-------------------------------------------|
D|-------------------------------------------|
A|-4-41-14-41-14-41-1------------------|
E|-------------------------1-1h2-2-2-2h3-3-3-|

the notes in brackets are not played on the album.  they do however fit well
to what the guitar is playing.  So if you want to play them, they sound good,
and they serve as a nice space filler if you're just fooling around without
a band or the album backing you.
		   
AcordesyTabs.com © 2008 Acordes y Tablaturas para guitarra. Tabs and Chords for guitar. Aviso Legal - Contacto
El uso de este sitio está sujeto a la aceptación de los términos y condiciones (42 usuarios online)