tablaturas, partituras y acordes para guitarra
Busca por banda/artista:
 
y/o título de la canción:
A B C D E F G H I J K L M N O P Q R S T U V W X Y Z 0 1 2 3 4 5 6 7 8 9 / Top 100 tabs
Categorías
Usuarios
usuario:
Darse de alta
password:
Artistas más visitados
Publicidad
TOP acordes y tablaturas de Deftones


Estás en: Inicio > Letra D > Acordes y tablaturas de Deftones > Gods hands
Gods hands
de Deftones
Puntúa este acorde/tab:      
(0.2/5)
Reportar este acorde/tab
  Añadir a tus favoritos
  Imprimir
Standard Tuning 
  /=slide   pm=palm mute  X=pickscrape 
 
 riff1 
 E-----------------------|  
 B-----------------------| 
 G----4-5---5----5-4-----| 
 D-2--4-5---5-2--5-4-7-6-| x2 
 A-2--2-3---3-2--3-2-7-6-| 
 E-0----------0------5-4-| 
 
 riff2 
 E------------------------------------------------------------------------- 
 B------------------------------------------------------------------------- 
 G-----4-5-/12-12-12I1-----5-4----------4-5-/111111/12-12-----5-4------- 
 D--2--4-5-----------------2--5-4-7-6---2--4-5----------------2--5-4-7-6-2-  
 A--2--2-3-/10-10-109-9---2--3-2-7-6---2--2-3-/-9-9-9/10-10--2--3-2-7-6-2- 
 E--0----------------------0------5-4---0---------------------0------5-4-0- 
 
 riff3 
 E-5/7--7-5------ 
 B-6/8--8-6------ 
 G-5/7--7-5------ 
 D----------------- 
 A----------------- 
 E----------------- 
  
 repeat: 
 riff1 
 riff3 
 riff1 
 riff2 
 
 riff4 
 E----------------------------------------------------------| 
 B----------------------------------------------------------| 
 G----------------------------------------------------------| 
 D-7/8-88-8-77-7/8-88-8/101010-5/6-66-6/5-55-5-33-3-2-| x2 
 A----------------------------------------------------------| 
 E-5/6-66-6-55-5/6-66-6/8-8-8--3/4-44-4/3-33-3-11-1-0-| 
 
 riff5 
 E---------------------| 
 B---------------------| 
 G-----------5-4-------| 
 D-7/88-XX-5-4-2222--| x4 
 A--------XX-3-2-2222--| 
 E-5/66-XX-3-2-0000--| 
                 pm.. 
 bassline: 
 E---------------- 
 B---------------- 
 G---------------- 
 D-----2--0-----4- 
 A-----------3/4-- 
 E--000-00-00----- 
 
 repeat: 
 riff1 
 riff2 
 riff4 
 riff5 
 
 E-------------------| 
 B-------------------| 
 G-------------------| 
 D-6/7777-7710109-95-| 
 A-6/7777-7710109-95-| 
 E-4/5555-55-8-87-73-| 
 
 end on: 
 E---------------------------- 
 B---------------------------- 
 G---------------------------- 
 D--7-------------------------- 
 A--7-------------------------- 
 E--5--------------------------
		   
AcordesyTabs.com © 2008 Acordes y Tablaturas para guitarra. Tabs and Chords for guitar. Aviso Legal - Contacto
El uso de este sitio está sujeto a la aceptación de los términos y condiciones (25 usuarios online)