tablaturas, partituras y acordes para guitarra
Busca por banda/artista:
 
y/o título de la canción:
A B C D E F G H I J K L M N O P Q R S T U V W X Y Z 0 1 2 3 4 5 6 7 8 9 / Top 100 tabs
Categorías
Usuarios
usuario:
Darse de alta
password:
Artistas más visitados
Publicidad
TOP acordes y tablaturas de Deftones


Head up
de Deftones
Puntúa este acorde/tab:      
(0.3/5)
Reportar este acorde/tab
  Añadir a tus favoritos
  Imprimir
This is the best song they have ever writen expecially since they are 
featuring Soulfly in they song! Even though this is my first tab i am pretty 
sure that this is exact! 
 
			INTRO 
E|---------------------------------------------------------------------- 
B|---------------------------------------------------------------------- 
G|----------------------------------------------------------------------	8x      
D|---------------------------------------------------------------------- 
A|---------------------------------------------------------------------- 
D|-3-2-0-2-0-2-0-2-0-2--------------------------------------------- 
	    HARDCORE 
E|---------------------------------------------------------------------- 
B|---------------------------------------------------------------------- 
G|----------------------------------------------------------------------	4x      
D|-3-2-0-2-0-2-0-2-0-2--------------------------------------------- 
A|-3-2-0-2-0-2-0-2-0-2--------------------------------------------- 
D|-3-2-0-2-0-2-0-2-0-2--------------------------------------------- 
 
E|---------------------------------------------------------------------- 
B|---------------------------------------------------------------------- 
G|----------------------------------------------------------------------	       
D|----------------------------------------------------------------------   8x        
A|---------------------------------------------------------------------- 
D|-3-2-0-2-0-2-0-2-0-2--------------------------------------------- 
		HARDCORE 
E|---------------------------------------------------------------------- 
B|---------------------------------------------------------------------- 
G|----------------------------------------------------------------------	       
D|-3-2-0-2-0-2-0-2-0-2---------------------------------------------      8x 
A|-3-2-0-2-0-2-0-2-0-2--------------------------------------------- 
D|-3-2-0-2-0-2-0-2-0-2--------------------------------------------- 
 
E|---------------------------------------------------------------------- 
B|---------------------------------------------------------------------- 
G|----------------------------------------------------------------------	       
D|----------------------------------------------------------------------  4x	        
A|---------------------------------------------------------------------- 
D|-3-2-0-2-0-2-0-2-0-2--------------------------------------------- 
		BRIDGE 
E|---------------------------------------------------------------------- 
B|---------------------------------------------------------------------- 
G|---------------------------------------------------------------------- 
D|--9-9-9-10-10-10-10-12-12-9-9--X--3-------------------------	4x	      
A|--9-9-9-10-10-10-10-12-12-9-9--X--3------------------------- 
D|--9-9-9-10-10-10-10-12-12-9-9--X--3------------------------- 
 
 
 
 
E|---------------------------------------------------------------------- 
B|---------------------------------------------------------------------- 
G|----------------------------------------------------------------------	        
D|----------------------------------------------------------------------  2x	      
A|---------------------------------------------------------------------- 
D|-3-2-0-2-0-2-0-2-0-2--------------------------------------------- 
 
	HARDCORE 
E|---------------------------------------------------------------------- 
B|---------------------------------------------------------------------- 
G|----------------------------------------------------------------------	      
D|-3-2-0-2-0-2-0-2-0-2---------------------------------------------    4x 
A|-3-2-0-2-0-2-0-2-0-2--------------------------------------------- 
D|-3-2-0-2-0-2-0-2-0-2--------------------------------------------- 
 
E|---------------------------------------------------------------------- 
B|---------------------------------------------------------------------- 
G|----------------------------------------------------------------------  4x	       
D|----------------------------------------------------------------------	        
A|----------------------------------------------------------------------   
D|-3-2-0-2-0-2-0-2-0-2--------------------------------------------- 
 
E|---------------------------------------------------------------------- 
B|---------------------------------------------------------------------- 
G|---------------------------------------------------------------------- 
D|--9-9-9-10-10-10-10-12-12-9-9--X--3-------------------------	 3x                  
A|--9-9-9-10-10-10-10-12-12-9-9--X--3------------------------- 
D|--9-9-9-10-10-10-10-12-12-9-9--X--3------------------------- 
 
E|---------------------------------------------------------------------- 
B|---------------------------------------------------------------------- 
G|----------------------------------------------------------------------	      
D|-9-9-9-10-10-10-10-12-12-9-9-X-----3-		  1x                 
A|-9-9-9-10-10-10-10-12-12-9-9-X-----3- 
D|-9-9-9-10-10-10-10-12-12-9-9-X-----3-HOLD 10 seconds		
	?Welcome to this world???? 
E|---------------------------------------------------------------------- 
B|---------------------------------------------------------------------- 
G|----------------------------------------------------------------------	       
D|-3-3--3-------------------------------------------------------   8x	      
A|-3-3--3------------------------------------------------------- 
D|-3-3--3------------------------------------------------------- 
 
 
 
E|---------------------------------------------------------------------- 
B|---------------------------------------------------------------------- 
G|----------------------------------------------------------------------	        
D|----------------------------------------------------------------------    8x       
A|---------------------------------------------------------------------- 
D|-3-2-0-2-0-2-0-2-0-2--------------------------------------------- 
 
 
 
E|---------------------------------------------------------------------- 
B|---------------------------------------------------------------------- 
G|--------H----------------------------------------------------------	       
D|--3-?--O----------------------------------------------------------	       
A|--3-?--L---------------------------------------------------------- 
D|--3-?--D----------------------------------------------------------
		   
AcordesyTabs.com © 2008 Acordes y Tablaturas para guitarra. Tabs and Chords for guitar. Aviso Legal - Contacto
El uso de este sitio está sujeto a la aceptación de los términos y condiciones (42 usuarios online)