tablaturas, partituras y acordes para guitarra
Busca por banda/artista:
 
y/o título de la canción:
A B C D E F G H I J K L M N O P Q R S T U V W X Y Z 0 1 2 3 4 5 6 7 8 9 / Top 100 tabs
Categorías
Usuarios
usuario:
Darse de alta
password:
Artistas más visitados
Publicidad
TOP acordes y tablaturas de Deftones


Estás en: Inicio > Letra D > Acordes y tablaturas de Deftones > Hexagram ver
Hexagram ver
de Deftones
Puntúa este acorde/tab:      
(0.3/5)
Reportar este acorde/tab
  Añadir a tus favoritos
  Imprimir
Hexagram
Tabber: c0z420

Tuning G# C# F# B

Intro/Verse:
B |--------------------------------------------------------------------------|
F#|--------------------------------------------------------------------------|
C#|-0-0-0-0-0-0-0-0-----------4-4-4-4-4-4-4-4-4-4-4-4-4-4-4-4----------------|
G#|------------------2-2-2-2-------------------------------------------------|

B |--------------------------------------------------------------------------|
F#|--------------------------------------------------------------------------|
C#|-0-0-0-0-0-0-0-0-----------4-4-4-4----------------------------------------|
G#|------------------2-2-2-2----------5-5-5-5-5-5-5-5-5-5-5-5----------------|

Chorus 1                 
B |-------------------------------|
F#|-------------------------------|
C#|-------------------------------|
G#|-3-0-2---3-2-0---2-0-2-2-0-2---|

Fill:
B |------------------|
F#|------------------|
C#|------------------|
G#|-8---7---3---5----|

last part of chorus                  
B |-----------------------------------------|
F#|-----------------------------------------|
C#|-------------------------------0-0-4~----|
G#|-3-0-2--3-2-0--2-0-2-2-0-2---------------|

Chorus 2

Then this fill 3 times mixed with the chorus
Fill:
B |------------------|
F#|------------------|
C#|------------------|
G#|-8---7---3---5----|
                
Outro:
B |--------------|
F#|--------------|
C#|-0-0-4--------|
G#|--------------|


Song Structure:

Intro
Verse 
Chorus 1
Verse
Chorus 2
Verse
Intro
Verse x2
Outro
		   
AcordesyTabs.com © 2008 Acordes y Tablaturas para guitarra. Tabs and Chords for guitar. Aviso Legal - Contacto
El uso de este sitio está sujeto a la aceptación de los términos y condiciones (24 usuarios online)