tablaturas, partituras y acordes para guitarra
Busca por banda/artista:
 
y/o título de la canción:
A B C D E F G H I J K L M N O P Q R S T U V W X Y Z 0 1 2 3 4 5 6 7 8 9 / Top 100 tabs
Categorías
Usuarios
usuario:
Darse de alta
password:
Artistas más visitados
Publicidad
TOP acordes y tablaturas de Deftones


Lonely
de Deftones
Puntúa este acorde/tab:      
(0.3/5)
Reportar este acorde/tab
  Añadir a tus favoritos
  Imprimir
Tunning: Drop D (D,A,D,G,B,E) 
Tabbed by daniel castillo 
 
INTRO (clean) 
E|--------------------------- 
B|----5---4--5---4---4-4h5-5- (repit a few times) 
G|--------------------------- 
D|--------------------------- 
A|--------------------------- 
D|--------------------------- 
 
then.....(still clean) 
E|-------------------------------- 
B|-------------------------------- (repit a few times) 
G|-------------------------------- 
D|-------------------------------- 
A|----6-4--4-4--6-4--4--4-4-4-4-4- 
D|----6-0--0-0--6-0--0--0-0-0-0-0- 
 
 
CHORUS (distortion)(repit a few times)  then... 
E|----------------------------------|  ---------------------| 
B|----------------------------------|  ---------------------| 
G|----6---------6-------------------|  -11-11-11-11-9-9-9-9-| 
D|----6-6--6-6--6-6--6--6-6-6-6-6---|  --x--x--x--x-x-x-x-x-| 
A|----4-6--6-6--4-6--6--6-6-6-6-6---|  --9--9--9--9-7-7-7-7-| 
D|------6--6-6----6--6--6-6-6-6-6---|  --0--0--0--0-0-0-0-0-| 
 
(repit a few more the chorus) 
 
VERSE (clean) 
E|----------------------------------------| 
B|----------------------------------------| 
G|---10--9-9-9-9-9-9-9--9-10---10-11---9--| 
D|----X--X-X-X-X-X-X-X--x--x----x--x---x--| 
A|----8--7-7-7-7-7-7-7--7--8----8--9---7--| 
D|----0--0-0-0-0-0-0-0--0--0----0--0---0--| 
 
E|----------------------------------------| 
B|----------------------------------------| 
G|---10--9-9-9-9-9-9-9--9-10---10-11---12-| 
D|----X--X-X-X-X-X-X-X--x--x----x--x----x-| 
A|----8--7-7-7-7-7-7-7--7--8----8--9---10-| 
D|----0--0-0-0-0-0-0-0--0--0----0--0----0-| 
 
(repit a few more the verse, then the verse is played again whit distortion) 
 
 
PRE-CHORUS.....(clean)   
E|-------------------------------- 
B|-------------------------------- (repit a few times) 
G|-------------------------------- 
D|-------------------------------- 
A|----6-4--4-4--6-4--4--4-4-4-4-4- 
D|----6-0--0-0--6-0--0--0-0-0-0-0- 
 
CHORUS... 
 
VERSE.. 
 
PRE-CHORUS... 
 
CHORUS...  
 
and then...(after chorus) 
E|---| 
B|---| (let it ring) 
G|-6-| 
D|-6-| 
A|-4-| 
D|---| 
 
INTERLUDE (clean) 
E|--------------------------------| 
B|--------------------------------|(repit a few times) 
G|----6-6---6-6---6-6---6-6---6-6-| 
D|----X-X---X-X---X-X---X-X---X-X-| 
A|----4-4---4-4---4-4---4-4---4-4-| 
D|--0-0-0-0-0-0-0-0-0-0-0-0-0-0-0-| 
 
BRIDGE (distortion) 
E|--------------------------------| 
B|--------------------------------|(repit a few times) 
G|--9-8---8-8---8-8--9--9-9-9-9-9-| 
D|--9-8---8-8---8-8--9--9-9-9-9-9-| 
A|--7-6---6-6---6-6--7--7-7-7-7-7-| 
D|--------------------------------| 
 
then... 
E|------------------------------------| 
B|------------------------------------| 
G|--11-11-11-11-11-11-9-9-9-9-9-9-9-9-| 
D|--11-11-11-11-11-11-9-9-9-9-9-9-9-9-| 
A|---9--9--9--9--9--9-7-7-7-7-7-7-7-7-| 
D|------------------------------------| 
 
(repeat BRIDGE) 
 
then... 
PRE-CHORUS.. 
 
CHORUS.. 
 
FINISH CHORUS IN :  
 
E|---| 
B|---| 
G|-6-|  
D|-6-| 
A|-4-| 
D|---|
		   
AcordesyTabs.com © 2008 Acordes y Tablaturas para guitarra. Tabs and Chords for guitar. Aviso Legal - Contacto
El uso de este sitio está sujeto a la aceptación de los términos y condiciones (32 usuarios online)