tablaturas, partituras y acordes para guitarra
Busca por banda/artista:
 
y/o título de la canción:
A B C D E F G H I J K L M N O P Q R S T U V W X Y Z 0 1 2 3 4 5 6 7 8 9 / Top 100 tabs
Categorías
Usuarios
usuario:
Darse de alta
password:
Artistas más visitados
Publicidad
TOP acordes y tablaturas de Deftones


Mx
de Deftones
Puntúa este acorde/tab:      
(0.2/5)
Reportar este acorde/tab
  Añadir a tus favoritos
  Imprimir
tuning (Db Ab Db Gb Bb Eb) 
 
Intro 
 
|--------------|--------------| 
|--------------|--------------| 
|--------------|--------------| 
|--1--0--3--4--|--4x-1-1-1-1--| 
|--1--0--3--4--|--4x-1-1-1-1--| 
|--1--0--3--4--|--4x-1-1-1-1--| 
 
end with: 
 
|------| 
|------|  *=Harmonics 
|------| 
|--*4--| 
|--*4--| 
|--*4--| 
 
1st & 3rd Verses 
 
 
|------------------------| 
|------------------------|  ** let ring  
|------------------------| 
|--4-----4------5-----4--| 
|--4-----4------5-----4--| 
|--4-----4------5-----4--| 
 
2nd & 4th Verses 
 
 
|--------------------------| 
|---------5---------5---5--| ** let ring  
|------7---------7----7----| 
|--4---------4-------------| 
|--4---------4-------------| 
|--4---------4-------------| 
 
 
|-----------------------------| 
|---------5------------5---5--| 
|------7-----7------7----7----| 
|--5------------4-------------| 
|--5------------4-------------| 
|--5------------4-------------| 
 
5th Verse 
///////// 
 
|------------------------| 
|------------------------|  ** let ring  
|------------------------| 
|--4-----4------5-----4--| 
|--4-----4------5-----4--| 
|--4-----4------5-----4--| 
 
|--------------------------| 
|---------5---------5---5--| ** let ring  
|------7---------7----7----| 
|--4---------4-------------| 
|--4---------4-------------| 
|--4---------4-------------| 
 
|-----------------------------| 
|---------5------------5---5--|  ** let ring 
|------7-----7------7----7----| 
|--5------------4-------------| 
|--5------------4-------------| 
|--5------------4-------------| 
 
1st & 3rd Choruses 
////////////////// 
 
|--------------|------| 
|--------------|------| 
|--------------|------| 
|--1--0--3--4--|--*4--| 
|--1--0--3--4--|--*4--| 
|--1--0--3--4--|--*4--| 
 
2nd,4th & 6th Choruses 
////////////////////// 
 
|------------|-------------| 
|------------|-------------| 
|------------|-------------| 
|--4-4-4-44--|--4-5-55/-9--| 
|--4-4-4-44--|--4-5-55/-9--| 
|--4-4-4-44--|--4-5-55/-9--| 
 
end with only on 2nd Chorus: 
 
|------| 
|------|   
|------| 
|--*4--| 
|--*4--| 
|--*4--| 
 
end with on 6th Chorus: 
 
|-----| 
|-----| 
|-----| 
|--0--| 
|--0--| 
|--0--| 
 
5th Chorus 
 
                 ..1            ..2               ..3            ..4 
|---------------|--------------|-----------------|--------------|------| 
|---------------|--------------|-----------------|--------------|------| 
|---------------|--------------|-------*3*4*5*5--|--------------|------| 
|--1--0--3--4-4-|--4x-1-1-1-1--|--4x-1-*3*4*5*5--|--4x-1-1-1-1--|--*4--| 
|--1--0--3--4-4-|--4x-1-1-1-1--|--4x-1-*3*4*5*5--|--4x-1-1-1-1--|--*4--| 
|--1--0--3--4-4-|--4x-1-1-1-1--|--4x-1-----------|--4x-1-1-1-1--|--*4--| 
                                                       <  pm > 
Outro 
 
|--------------|--------| 
|--------------|--------| 
|--------------|--------| 
|--1--0--3--4--|--4--1--| 
|--1--0--3--4--|--4--1--| 
|--1--0--3--4--|--4--1--| 
                  
		   
AcordesyTabs.com © 2008 Acordes y Tablaturas para guitarra. Tabs and Chords for guitar. Aviso Legal - Contacto
El uso de este sitio está sujeto a la aceptación de los términos y condiciones (24 usuarios online)