tablaturas, partituras y acordes para guitarra
Busca por banda/artista:
 
y/o título de la canción:
A B C D E F G H I J K L M N O P Q R S T U V W X Y Z 0 1 2 3 4 5 6 7 8 9 / Top 100 tabs
Categorías
Usuarios
usuario:
Darse de alta
password:
Artistas más visitados
Publicidad
TOP acordes y tablaturas de Deftones


Estás en: Inicio > Letra D > Acordes y tablaturas de Deftones > Needles and pins
Needles and pins
de Deftones
Puntúa este acorde/tab:      
(0.3/5)
Reportar este acorde/tab
  Añadir a tus favoritos
  Imprimir
Transcribed by: Jamie Williams (lpweb@shaw.ca) 
 
Tuning: Drop D, Down 2 Steps (A#,F,A#,D#,G,C) 
 
Verse - "How neat, I'm impressed" 
|------------------------------------------------------------------------------| 
|------------------------------------------------------------------------------| 
|---3-----3-----3-----3-----3-----3-----3-----3-----3-----3-----3-----3--------| 
|-----0-----0-----0-----0-----0-----0-----0-----0-----0-----0-----0-----0------| 
|-1-----1-----1-----1-----1-----1-----1-----1-----1-----1-----1-----1-----1----| 
|------------------------------------------------------------------------------| 
 
Chorus - "Here we are" 
|------------------------------------------------------------------------------| 
|------------------------------------------------------------------------------| 
|------------------------------------------------------------------------------| 
|-7-7-7-7-3-3-3-3-8-8-8-8--8---------------------------------------------------| 
|-7-7-7-7-3-3-3-3-8-8-8-8--8---------------------------------------------------| 
|-7-7-7-7-3-3-3-3-8-8-8-8--8---------------------------------------------------| 
 
Bridge - "Tune out everyone in the crowd" 
|------------------------------------------------------------------------------| 
|----3---3---3-3-3-------------------------------------------------------------| 
|----2---2---2-2-2---2-2-------------------------------------------------------| 
|----0---0---0-0-0-------0-----------------------------------------------------| 
|-1----1---1-------1-----------------------------------------------------------| 
|------------------------------------------------------------------------------|
		   
AcordesyTabs.com © 2008 Acordes y Tablaturas para guitarra. Tabs and Chords for guitar. Aviso Legal - Contacto
El uso de este sitio está sujeto a la aceptación de los términos y condiciones (36 usuarios online)