tablaturas, partituras y acordes para guitarra
Busca por banda/artista:
 
y/o título de la canción:
A B C D E F G H I J K L M N O P Q R S T U V W X Y Z 0 1 2 3 4 5 6 7 8 9 / Top 100 tabs
Categorías
Usuarios
usuario:
Darse de alta
password:
Artistas más visitados
Publicidad
TOP acordes y tablaturas de Deftones


Nightboat
de Deftones
Puntúa este acorde/tab:      
(0.3/5)
Reportar este acorde/tab
  Añadir a tus favoritos
  Imprimir
Standard Tuning 
   *=harmonic 
    
   	 
	intro (not sure) 
  E------------------------| 
  B------------------------| 
  G------------------------| x8 
  D------------------------| 
  A-----------5*-5*-5*-----| 
  E--5*-5*-5*-5*-5*-----7*-| 
 
	      
  E---------|-faster-   
  B---------|--------    
  G---------|-9------    
  D---9-----|-9x4----   
  A---7-x10-|-7------    
  E---0-----|-0------   
 
    bridge 
  E------------------- 
  B------------------- 
  G------------------- 
  D------------------- 
  A--2222222222222222- 
  E--0000000000000000- 
     p.m............. 
 
     chourus 
  E----------------- 
  B----------------- 
  G--------5555-444- 
  D--2-2------------ 
  A--2-2---3333-222- 
  E--0-0------------ 
 
  E------------------- 
  B------------------- 
  G------------------- 
  D------7*---7*------- 
  A---7*-7*---7*-------- 
  E---------7--------- 
 
   
  E-------------- 
  B-------------- 
  G-------------- 
  D--5555-------- 
  A--3333-222---- 
  E-------000---- 
     pm...... 
 
  bridge, 
  chourus,  
 
    
  E-------------- 
  B-16~-----17~- 
  G-------------- 
  D-------------- 
  A-------------- 
  E--------------   
 
  bridge, 
  chourus, 
 
  E--------------------------- 
  B--------------------------- 
  G--------------------------- 
  D-------------------------9- 
  A--2222222222222222222222-7- 
  E--0000000000000000000000-0--- 
     p.m.............
		   
AcordesyTabs.com © 2008 Acordes y Tablaturas para guitarra. Tabs and Chords for guitar. Aviso Legal - Contacto
El uso de este sitio está sujeto a la aceptación de los términos y condiciones (24 usuarios online)