tablaturas, partituras y acordes para guitarra
Busca por banda/artista:
 
y/o título de la canción:
A B C D E F G H I J K L M N O P Q R S T U V W X Y Z 0 1 2 3 4 5 6 7 8 9 / Top 100 tabs
Categorías
Usuarios
usuario:
Darse de alta
password:
Artistas más visitados
Publicidad
TOP acordes y tablaturas de Deftones


Estás en: Inicio > Letra D > Acordes y tablaturas de Deftones > No ordinary love
No ordinary love
de Deftones
Puntúa este acorde/tab:      
(0.3/5)
Reportar este acorde/tab
  Añadir a tus favoritos
  Imprimir
By: G.Davies 
 
Deftones w/ Jonah 
Change In The House Of Flies (B-Side) 
Standard Tuning (or drop 2 frets if you're playing in drop C) 
 
e|-----------------------------| 
B|-----------------------------| 
G|-----------------------------| 
D|-9----9-11----11-12----17-16-| 
A|-----------------------------| 
E|-----------------------------| 
 
e|-----------------------------|---------------------------| 
B|-----------------------------|---------------------------| 
G|-----------------------------|---------------------------|  
D|-9----14/11-11----9-11-------|-4~----4~------------------| 
A|-----------------------------|-2~----2~------------------| 
E|-----------------------------|---------------------------| 
 
e|-----------------------------| 
B|-----------------------------| 
G|-----------------------------| 
D|-12---12-11------------------| 
A|-----------------------------| 
E|-----------------------------| 
 
Any Comments Mail To - iveseenmyfate@hotmail.com 
===============================================================================
		   
AcordesyTabs.com © 2008 Acordes y Tablaturas para guitarra. Tabs and Chords for guitar. Aviso Legal - Contacto
El uso de este sitio está sujeto a la aceptación de los términos y condiciones (35 usuarios online)