tablaturas, partituras y acordes para guitarra
Busca por banda/artista:
 
y/o título de la canción:
A B C D E F G H I J K L M N O P Q R S T U V W X Y Z 0 1 2 3 4 5 6 7 8 9 / Top 100 tabs
Categorías
Usuarios
usuario:
Darse de alta
password:
Artistas más visitados
Publicidad
TOP acordes y tablaturas de Deftones


Estás en: Inicio > Letra D > Acordes y tablaturas de Deftones > Pink maggot
Pink maggot
de Deftones
Puntúa este acorde/tab:      
(0.2/5)
Reportar este acorde/tab
  Añadir a tus favoritos
  Imprimir
Tab By- Jon D. 
Drop C 
 
Verse-(Light Distortion) 
D---------------------------------------| 
A---------------------------------------| 
F---------------------------------3-----| 
C-------8-------10-----7----------------| 
G----8-------8-------5-------1----------| 
C-8--------0-------5-------1------------| 
 
Verse 2-(Light Distortion) 
D--------------------------------------------------------| 
A--------------------------------------------------------| 
F-----------------------------------------------5--------| 
C-------8-------10------7-5h7-7-8-7-4--------------------| 
G----8-------8--------5-----------------------1----------| 
C-8--------0--------5-----------------------1------------| 
 
Chorus-(Distortion)-Guitar 1 
D----------------------------------------------------| 
A----------------------------------------------------| 
F-10-10-10-10-10-10-10-10-10-7--7--7--7-7--7--7--7---| 
C-8--8--8--8--8--0--0--0--0--5--5--5--5/4--4--4--4---| 
G-8--8--8--8--8--0--0--0--0--5--5--5--5/4--4--4--4---| 
C-8--8--8--8--8--0--0--0--0--5--5--5--5/4--4--4--4---| 
 
Chorus-(Distortion)-Guitar 2 
D-------------------------------------------------------------------| 
A-------------------------------------------------------------------| 
F-10-10-10-10-10--10-10-10-10---12?12-12-12-----14-14-15-15-14-14---| 
C-8--8--8--8--8---x--x--x--x----x?-x--x--x------x?-x--x--x--x?-x----| 
G-8--8--8--8--8---8--8--8--8----10-10-10-10-----12-12?13-13-12-12---| 
C-8--8--8--8--8---0--0--0--0----0--0--0--0------0--0--0--0-?0-?0----|
		   
AcordesyTabs.com © 2008 Acordes y Tablaturas para guitarra. Tabs and Chords for guitar. Aviso Legal - Contacto
El uso de este sitio está sujeto a la aceptación de los términos y condiciones (34 usuarios online)